  0
SECTION
  2
BLOCKS
  0
ENDSEC
  0
SECTION
  2
ENTITIES
  0
LINE
  8
0
 10
125
 20
160
 11
-125
 21
160
  0
LINE
  8
0
 10
-125
 20
160
 11
-125
 21
0
  0
LINE
  8
0
 10
-125
 20
0
 11
125
 21
0
  0
LINE
  8
0
 10
125
 20
0
 11
125
 21
160
  0
LINE
  8
0
 10
27.6232
 20
139.012
 11
26.8757
 21
139.106
  0
LINE
  8
0
 10
26.8757
 20
139.106
 11
26.1459
 21
139.294
  0
LINE
  8
0
 10
26.1459
 20
139.294
 11
25.4453
 21
139.571
  0
LINE
  8
0
 10
25.4453
 20
139.571
 11
24.785
 21
139.934
  0
LINE
  8
0
 10
24.785
 20
139.934
 11
24.1754
 21
140.377
  0
LINE
  8
0
 10
24.1754
 20
140.377
 11
23.6262
 21
140.893
  0
LINE
  8
0
 10
23.6262
 20
140.893
 11
23.1459
 21
141.473
  0
LINE
  8
0
 10
23.1459
 20
141.473
 11
22.7422
 21
142.109
  0
LINE
  8
0
 10
22.7422
 20
142.109
 11
22.4213
 21
142.791
  0
LINE
  8
0
 10
22.4213
 20
142.791
 11
22.1885
 21
143.508
  0
LINE
  8
0
 10
22.1885
 20
143.508
 11
22.0473
 21
144.248
  0
LINE
  8
0
 10
22.0473
 20
144.248
 11
22
 21
145
  0
LINE
  8
0
 10
22
 20
145
 11
22.0473
 21
145.752
  0
LINE
  8
0
 10
22.0473
 20
145.752
 11
22.1885
 21
146.492
  0
LINE
  8
0
 10
22.1885
 20
146.492
 11
22.4213
 21
147.209
  0
LINE
  8
0
 10
22.4213
 20
147.209
 11
22.7422
 21
147.891
  0
LINE
  8
0
 10
22.7422
 20
147.891
 11
23.1459
 21
148.527
  0
LINE
  8
0
 10
23.1459
 20
148.527
 11
23.6262
 21
149.107
  0
LINE
  8
0
 10
23.6262
 20
149.107
 11
24.1754
 21
149.623
  0
LINE
  8
0
 10
24.1754
 20
149.623
 11
24.785
 21
150.066
  0
LINE
  8
0
 10
24.785
 20
150.066
 11
25.4453
 21
150.429
  0
LINE
  8
0
 10
25.4453
 20
150.429
 11
26.1459
 21
150.706
  0
LINE
  8
0
 10
26.1459
 20
150.706
 11
26.8757
 21
150.894
  0
LINE
  8
0
 10
26.8757
 20
150.894
 11
27.6232
 21
150.988
  0
LINE
  8
0
 10
27.6232
 20
150.988
 11
28.3767
 21
150.988
  0
LINE
  8
0
 10
28.3767
 20
150.988
 11
29.1243
 21
150.894
  0
LINE
  8
0
 10
29.1243
 20
150.894
 11
29.8541
 21
150.706
  0
LINE
  8
0
 10
29.8541
 20
150.706
 11
30.5547
 21
150.429
  0
LINE
  8
0
 10
30.5547
 20
150.429
 11
31.215
 21
150.066
  0
LINE
  8
0
 10
31.215
 20
150.066
 11
31.8245
 21
149.623
  0
LINE
  8
0
 10
31.8245
 20
149.623
 11
32.3738
 21
149.107
  0
LINE
  8
0
 10
32.3738
 20
149.107
 11
32.8541
 21
148.527
  0
LINE
  8
0
 10
32.8541
 20
148.527
 11
33.2578
 21
147.891
  0
LINE
  8
0
 10
33.2578
 20
147.891
 11
33.5786
 21
147.209
  0
LINE
  8
0
 10
33.5786
 20
147.209
 11
33.8115
 21
146.492
  0
LINE
  8
0
 10
33.8115
 20
146.492
 11
33.9527
 21
145.752
  0
LINE
  8
0
 10
33.9527
 20
145.752
 11
34
 21
145
  0
LINE
  8
0
 10
34
 20
145
 11
33.9527
 21
144.248
  0
LINE
  8
0
 10
33.9527
 20
144.248
 11
33.8115
 21
143.508
  0
LINE
  8
0
 10
33.8115
 20
143.508
 11
33.5786
 21
142.791
  0
LINE
  8
0
 10
33.5786
 20
142.791
 11
33.2578
 21
142.109
  0
LINE
  8
0
 10
33.2578
 20
142.109
 11
32.8541
 21
141.473
  0
LINE
  8
0
 10
32.8541
 20
141.473
 11
32.3738
 21
140.893
  0
LINE
  8
0
 10
32.3738
 20
140.893
 11
31.8245
 21
140.377
  0
LINE
  8
0
 10
31.8245
 20
140.377
 11
31.215
 21
139.934
  0
LINE
  8
0
 10
31.215
 20
139.934
 11
30.5547
 21
139.571
  0
LINE
  8
0
 10
30.5547
 20
139.571
 11
29.8541
 21
139.294
  0
LINE
  8
0
 10
29.8541
 20
139.294
 11
29.1243
 21
139.106
  0
LINE
  8
0
 10
29.1243
 20
139.106
 11
28.3767
 21
139.012
  0
LINE
  8
0
 10
28.3767
 20
139.012
 11
27.6232
 21
139.012
  0
LINE
  8
0
 10
59.6232
 20
139.012
 11
58.8757
 21
139.106
  0
LINE
  8
0
 10
58.8757
 20
139.106
 11
58.1459
 21
139.294
  0
LINE
  8
0
 10
58.1459
 20
139.294
 11
57.4453
 21
139.571
  0
LINE
  8
0
 10
57.4453
 20
139.571
 11
56.785
 21
139.934
  0
LINE
  8
0
 10
56.785
 20
139.934
 11
56.1754
 21
140.377
  0
LINE
  8
0
 10
56.1754
 20
140.377
 11
55.6262
 21
140.893
  0
LINE
  8
0
 10
55.6262
 20
140.893
 11
55.1459
 21
141.473
  0
LINE
  8
0
 10
55.1459
 20
141.473
 11
54.7422
 21
142.109
  0
LINE
  8
0
 10
54.7422
 20
142.109
 11
54.4213
 21
142.791
  0
LINE
  8
0
 10
54.4213
 20
142.791
 11
54.1885
 21
143.508
  0
LINE
  8
0
 10
54.1885
 20
143.508
 11
54.0473
 21
144.248
  0
LINE
  8
0
 10
54.0473
 20
144.248
 11
54
 21
145
  0
LINE
  8
0
 10
54
 20
145
 11
54.0473
 21
145.752
  0
LINE
  8
0
 10
54.0473
 20
145.752
 11
54.1885
 21
146.492
  0
LINE
  8
0
 10
54.1885
 20
146.492
 11
54.4213
 21
147.209
  0
LINE
  8
0
 10
54.4213
 20
147.209
 11
54.7422
 21
147.891
  0
LINE
  8
0
 10
54.7422
 20
147.891
 11
55.1459
 21
148.527
  0
LINE
  8
0
 10
55.1459
 20
148.527
 11
55.6262
 21
149.107
  0
LINE
  8
0
 10
55.6262
 20
149.107
 11
56.1754
 21
149.623
  0
LINE
  8
0
 10
56.1754
 20
149.623
 11
56.785
 21
150.066
  0
LINE
  8
0
 10
56.785
 20
150.066
 11
57.4453
 21
150.429
  0
LINE
  8
0
 10
57.4453
 20
150.429
 11
58.1459
 21
150.706
  0
LINE
  8
0
 10
58.1459
 20
150.706
 11
58.8757
 21
150.894
  0
LINE
  8
0
 10
58.8757
 20
150.894
 11
59.6232
 21
150.988
  0
LINE
  8
0
 10
59.6232
 20
150.988
 11
60.3767
 21
150.988
  0
LINE
  8
0
 10
60.3767
 20
150.988
 11
61.1243
 21
150.894
  0
LINE
  8
0
 10
61.1243
 20
150.894
 11
61.8541
 21
150.706
  0
LINE
  8
0
 10
61.8541
 20
150.706
 11
62.5547
 21
150.429
  0
LINE
  8
0
 10
62.5547
 20
150.429
 11
63.215
 21
150.066
  0
LINE
  8
0
 10
63.215
 20
150.066
 11
63.8245
 21
149.623
  0
LINE
  8
0
 10
63.8245
 20
149.623
 11
64.3738
 21
149.107
  0
LINE
  8
0
 10
64.3738
 20
149.107
 11
64.8541
 21
148.527
  0
LINE
  8
0
 10
64.8541
 20
148.527
 11
65.2578
 21
147.891
  0
LINE
  8
0
 10
65.2578
 20
147.891
 11
65.5786
 21
147.209
  0
LINE
  8
0
 10
65.5786
 20
147.209
 11
65.8115
 21
146.492
  0
LINE
  8
0
 10
65.8115
 20
146.492
 11
65.9527
 21
145.752
  0
LINE
  8
0
 10
65.9527
 20
145.752
 11
66
 21
145
  0
LINE
  8
0
 10
66
 20
145
 11
65.9527
 21
144.248
  0
LINE
  8
0
 10
65.9527
 20
144.248
 11
65.8115
 21
143.508
  0
LINE
  8
0
 10
65.8115
 20
143.508
 11
65.5786
 21
142.791
  0
LINE
  8
0
 10
65.5786
 20
142.791
 11
65.2578
 21
142.109
  0
LINE
  8
0
 10
65.2578
 20
142.109
 11
64.8541
 21
141.473
  0
LINE
  8
0
 10
64.8541
 20
141.473
 11
64.3738
 21
140.893
  0
LINE
  8
0
 10
64.3738
 20
140.893
 11
63.8245
 21
140.377
  0
LINE
  8
0
 10
63.8245
 20
140.377
 11
63.215
 21
139.934
  0
LINE
  8
0
 10
63.215
 20
139.934
 11
62.5547
 21
139.571
  0
LINE
  8
0
 10
62.5547
 20
139.571
 11
61.8541
 21
139.294
  0
LINE
  8
0
 10
61.8541
 20
139.294
 11
61.1243
 21
139.106
  0
LINE
  8
0
 10
61.1243
 20
139.106
 11
60.3767
 21
139.012
  0
LINE
  8
0
 10
60.3767
 20
139.012
 11
59.6232
 21
139.012
  0
LINE
  8
0
 10
-28.3767
 20
139.012
 11
-29.1243
 21
139.106
  0
LINE
  8
0
 10
-29.1243
 20
139.106
 11
-29.8541
 21
139.294
  0
LINE
  8
0
 10
-29.8541
 20
139.294
 11
-30.5547
 21
139.571
  0
LINE
  8
0
 10
-30.5547
 20
139.571
 11
-31.215
 21
139.934
  0
LINE
  8
0
 10
-31.215
 20
139.934
 11
-31.8245
 21
140.377
  0
LINE
  8
0
 10
-31.8245
 20
140.377
 11
-32.3738
 21
140.893
  0
LINE
  8
0
 10
-32.3738
 20
140.893
 11
-32.8541
 21
141.473
  0
LINE
  8
0
 10
-32.8541
 20
141.473
 11
-33.2578
 21
142.109
  0
LINE
  8
0
 10
-33.2578
 20
142.109
 11
-33.5786
 21
142.791
  0
LINE
  8
0
 10
-33.5786
 20
142.791
 11
-33.8115
 21
143.508
  0
LINE
  8
0
 10
-33.8115
 20
143.508
 11
-33.9527
 21
144.248
  0
LINE
  8
0
 10
-33.9527
 20
144.248
 11
-34
 21
145
  0
LINE
  8
0
 10
-34
 20
145
 11
-33.9527
 21
145.752
  0
LINE
  8
0
 10
-33.9527
 20
145.752
 11
-33.8115
 21
146.492
  0
LINE
  8
0
 10
-33.8115
 20
146.492
 11
-33.5786
 21
147.209
  0
LINE
  8
0
 10
-33.5786
 20
147.209
 11
-33.2578
 21
147.891
  0
LINE
  8
0
 10
-33.2578
 20
147.891
 11
-32.8541
 21
148.527
  0
LINE
  8
0
 10
-32.8541
 20
148.527
 11
-32.3738
 21
149.107
  0
LINE
  8
0
 10
-32.3738
 20
149.107
 11
-31.8245
 21
149.623
  0
LINE
  8
0
 10
-31.8245
 20
149.623
 11
-31.215
 21
150.066
  0
LINE
  8
0
 10
-31.215
 20
150.066
 11
-30.5547
 21
150.429
  0
LINE
  8
0
 10
-30.5547
 20
150.429
 11
-29.8541
 21
150.706
  0
LINE
  8
0
 10
-29.8541
 20
150.706
 11
-29.1243
 21
150.894
  0
LINE
  8
0
 10
-29.1243
 20
150.894
 11
-28.3767
 21
150.988
  0
LINE
  8
0
 10
-28.3767
 20
150.988
 11
-27.6232
 21
150.988
  0
LINE
  8
0
 10
-27.6232
 20
150.988
 11
-26.8757
 21
150.894
  0
LINE
  8
0
 10
-26.8757
 20
150.894
 11
-26.1459
 21
150.706
  0
LINE
  8
0
 10
-26.1459
 20
150.706
 11
-25.4453
 21
150.429
  0
LINE
  8
0
 10
-25.4453
 20
150.429
 11
-24.785
 21
150.066
  0
LINE
  8
0
 10
-24.785
 20
150.066
 11
-24.1754
 21
149.623
  0
LINE
  8
0
 10
-24.1754
 20
149.623
 11
-23.6262
 21
149.107
  0
LINE
  8
0
 10
-23.6262
 20
149.107
 11
-23.1459
 21
148.527
  0
LINE
  8
0
 10
-23.1459
 20
148.527
 11
-22.7422
 21
147.891
  0
LINE
  8
0
 10
-22.7422
 20
147.891
 11
-22.4213
 21
147.209
  0
LINE
  8
0
 10
-22.4213
 20
147.209
 11
-22.1885
 21
146.492
  0
LINE
  8
0
 10
-22.1885
 20
146.492
 11
-22.0473
 21
145.752
  0
LINE
  8
0
 10
-22.0473
 20
145.752
 11
-22
 21
145
  0
LINE
  8
0
 10
-22
 20
145
 11
-22.0473
 21
144.248
  0
LINE
  8
0
 10
-22.0473
 20
144.248
 11
-22.1885
 21
143.508
  0
LINE
  8
0
 10
-22.1885
 20
143.508
 11
-22.4213
 21
142.791
  0
LINE
  8
0
 10
-22.4213
 20
142.791
 11
-22.7422
 21
142.109
  0
LINE
  8
0
 10
-22.7422
 20
142.109
 11
-23.1459
 21
141.473
  0
LINE
  8
0
 10
-23.1459
 20
141.473
 11
-23.6262
 21
140.893
  0
LINE
  8
0
 10
-23.6262
 20
140.893
 11
-24.1754
 21
140.377
  0
LINE
  8
0
 10
-24.1754
 20
140.377
 11
-24.785
 21
139.934
  0
LINE
  8
0
 10
-24.785
 20
139.934
 11
-25.4453
 21
139.571
  0
LINE
  8
0
 10
-25.4453
 20
139.571
 11
-26.1459
 21
139.294
  0
LINE
  8
0
 10
-26.1459
 20
139.294
 11
-26.8757
 21
139.106
  0
LINE
  8
0
 10
-26.8757
 20
139.106
 11
-27.6232
 21
139.012
  0
LINE
  8
0
 10
-27.6232
 20
139.012
 11
-28.3767
 21
139.012
  0
LINE
  8
0
 10
-60.3767
 20
139.012
 11
-61.1243
 21
139.106
  0
LINE
  8
0
 10
-61.1243
 20
139.106
 11
-61.8541
 21
139.294
  0
LINE
  8
0
 10
-61.8541
 20
139.294
 11
-62.5547
 21
139.571
  0
LINE
  8
0
 10
-62.5547
 20
139.571
 11
-63.215
 21
139.934
  0
LINE
  8
0
 10
-63.215
 20
139.934
 11
-63.8245
 21
140.377
  0
LINE
  8
0
 10
-63.8245
 20
140.377
 11
-64.3738
 21
140.893
  0
LINE
  8
0
 10
-64.3738
 20
140.893
 11
-64.8541
 21
141.473
  0
LINE
  8
0
 10
-64.8541
 20
141.473
 11
-65.2578
 21
142.109
  0
LINE
  8
0
 10
-65.2578
 20
142.109
 11
-65.5786
 21
142.791
  0
LINE
  8
0
 10
-65.5786
 20
142.791
 11
-65.8115
 21
143.508
  0
LINE
  8
0
 10
-65.8115
 20
143.508
 11
-65.9527
 21
144.248
  0
LINE
  8
0
 10
-65.9527
 20
144.248
 11
-66
 21
145
  0
LINE
  8
0
 10
-66
 20
145
 11
-65.9527
 21
145.752
  0
LINE
  8
0
 10
-65.9527
 20
145.752
 11
-65.8115
 21
146.492
  0
LINE
  8
0
 10
-65.8115
 20
146.492
 11
-65.5786
 21
147.209
  0
LINE
  8
0
 10
-65.5786
 20
147.209
 11
-65.2578
 21
147.891
  0
LINE
  8
0
 10
-65.2578
 20
147.891
 11
-64.8541
 21
148.527
  0
LINE
  8
0
 10
-64.8541
 20
148.527
 11
-64.3738
 21
149.107
  0
LINE
  8
0
 10
-64.3738
 20
149.107
 11
-63.8245
 21
149.623
  0
LINE
  8
0
 10
-63.8245
 20
149.623
 11
-63.215
 21
150.066
  0
LINE
  8
0
 10
-63.215
 20
150.066
 11
-62.5547
 21
150.429
  0
LINE
  8
0
 10
-62.5547
 20
150.429
 11
-61.8541
 21
150.706
  0
LINE
  8
0
 10
-61.8541
 20
150.706
 11
-61.1243
 21
150.894
  0
LINE
  8
0
 10
-61.1243
 20
150.894
 11
-60.3767
 21
150.988
  0
LINE
  8
0
 10
-60.3767
 20
150.988
 11
-59.6232
 21
150.988
  0
LINE
  8
0
 10
-59.6232
 20
150.988
 11
-58.8757
 21
150.894
  0
LINE
  8
0
 10
-58.8757
 20
150.894
 11
-58.1459
 21
150.706
  0
LINE
  8
0
 10
-58.1459
 20
150.706
 11
-57.4453
 21
150.429
  0
LINE
  8
0
 10
-57.4453
 20
150.429
 11
-56.785
 21
150.066
  0
LINE
  8
0
 10
-56.785
 20
150.066
 11
-56.1754
 21
149.623
  0
LINE
  8
0
 10
-56.1754
 20
149.623
 11
-55.6262
 21
149.107
  0
LINE
  8
0
 10
-55.6262
 20
149.107
 11
-55.1459
 21
148.527
  0
LINE
  8
0
 10
-55.1459
 20
148.527
 11
-54.7422
 21
147.891
  0
LINE
  8
0
 10
-54.7422
 20
147.891
 11
-54.4213
 21
147.209
  0
LINE
  8
0
 10
-54.4213
 20
147.209
 11
-54.1885
 21
146.492
  0
LINE
  8
0
 10
-54.1885
 20
146.492
 11
-54.0473
 21
145.752
  0
LINE
  8
0
 10
-54.0473
 20
145.752
 11
-54
 21
145
  0
LINE
  8
0
 10
-54
 20
145
 11
-54.0473
 21
144.248
  0
LINE
  8
0
 10
-54.0473
 20
144.248
 11
-54.1885
 21
143.508
  0
LINE
  8
0
 10
-54.1885
 20
143.508
 11
-54.4213
 21
142.791
  0
LINE
  8
0
 10
-54.4213
 20
142.791
 11
-54.7422
 21
142.109
  0
LINE
  8
0
 10
-54.7422
 20
142.109
 11
-55.1459
 21
141.473
  0
LINE
  8
0
 10
-55.1459
 20
141.473
 11
-55.6262
 21
140.893
  0
LINE
  8
0
 10
-55.6262
 20
140.893
 11
-56.1754
 21
140.377
  0
LINE
  8
0
 10
-56.1754
 20
140.377
 11
-56.785
 21
139.934
  0
LINE
  8
0
 10
-56.785
 20
139.934
 11
-57.4453
 21
139.571
  0
LINE
  8
0
 10
-57.4453
 20
139.571
 11
-58.1459
 21
139.294
  0
LINE
  8
0
 10
-58.1459
 20
139.294
 11
-58.8757
 21
139.106
  0
LINE
  8
0
 10
-58.8757
 20
139.106
 11
-59.6232
 21
139.012
  0
LINE
  8
0
 10
-59.6232
 20
139.012
 11
-60.3767
 21
139.012
  0
LINE
  8
0
 10
-114.1
 20
147.403
 11
-114.3
 21
147.428
  0
LINE
  8
0
 10
-114.3
 20
147.428
 11
-114.494
 21
147.478
  0
LINE
  8
0
 10
-114.494
 20
147.478
 11
-114.681
 21
147.552
  0
LINE
  8
0
 10
-114.681
 20
147.552
 11
-114.857
 21
147.649
  0
LINE
  8
0
 10
-114.857
 20
147.649
 11
-115.02
 21
147.767
  0
LINE
  8
0
 10
-115.02
 20
147.767
 11
-115.166
 21
147.905
  0
LINE
  8
0
 10
-115.166
 20
147.905
 11
-115.294
 21
148.06
  0
LINE
  8
0
 10
-115.294
 20
148.06
 11
-115.402
 21
148.229
  0
LINE
  8
0
 10
-115.402
 20
148.229
 11
-115.488
 21
148.411
  0
LINE
  8
0
 10
-115.488
 20
148.411
 11
-115.55
 21
148.602
  0
LINE
  8
0
 10
-115.55
 20
148.602
 11
-115.587
 21
148.799
  0
LINE
  8
0
 10
-115.587
 20
148.799
 11
-115.6
 21
149
  0
LINE
  8
0
 10
-115.6
 20
149
 11
-115.587
 21
149.201
  0
LINE
  8
0
 10
-115.587
 20
149.201
 11
-115.55
 21
149.398
  0
LINE
  8
0
 10
-115.55
 20
149.398
 11
-115.488
 21
149.589
  0
LINE
  8
0
 10
-115.488
 20
149.589
 11
-115.402
 21
149.771
  0
LINE
  8
0
 10
-115.402
 20
149.771
 11
-115.294
 21
149.94
  0
LINE
  8
0
 10
-115.294
 20
149.94
 11
-115.166
 21
150.095
  0
LINE
  8
0
 10
-115.166
 20
150.095
 11
-115.02
 21
150.233
  0
LINE
  8
0
 10
-115.02
 20
150.233
 11
-114.857
 21
150.351
  0
LINE
  8
0
 10
-114.857
 20
150.351
 11
-114.681
 21
150.448
  0
LINE
  8
0
 10
-114.681
 20
150.448
 11
-114.494
 21
150.522
  0
LINE
  8
0
 10
-114.494
 20
150.522
 11
-114.3
 21
150.572
  0
LINE
  8
0
 10
-114.3
 20
150.572
 11
-114.1
 21
150.597
  0
LINE
  8
0
 10
-114.1
 20
150.597
 11
-113.9
 21
150.597
  0
LINE
  8
0
 10
-113.9
 20
150.597
 11
-113.7
 21
150.572
  0
LINE
  8
0
 10
-113.7
 20
150.572
 11
-113.506
 21
150.522
  0
LINE
  8
0
 10
-113.506
 20
150.522
 11
-113.319
 21
150.448
  0
LINE
  8
0
 10
-113.319
 20
150.448
 11
-113.143
 21
150.351
  0
LINE
  8
0
 10
-113.143
 20
150.351
 11
-112.98
 21
150.233
  0
LINE
  8
0
 10
-112.98
 20
150.233
 11
-112.834
 21
150.095
  0
LINE
  8
0
 10
-112.834
 20
150.095
 11
-112.706
 21
149.94
  0
LINE
  8
0
 10
-112.706
 20
149.94
 11
-112.598
 21
149.771
  0
LINE
  8
0
 10
-112.598
 20
149.771
 11
-112.512
 21
149.589
  0
LINE
  8
0
 10
-112.512
 20
149.589
 11
-112.45
 21
149.398
  0
LINE
  8
0
 10
-112.45
 20
149.398
 11
-112.413
 21
149.201
  0
LINE
  8
0
 10
-112.413
 20
149.201
 11
-112.4
 21
149
  0
LINE
  8
0
 10
-112.4
 20
149
 11
-112.413
 21
148.799
  0
LINE
  8
0
 10
-112.413
 20
148.799
 11
-112.45
 21
148.602
  0
LINE
  8
0
 10
-112.45
 20
148.602
 11
-112.512
 21
148.411
  0
LINE
  8
0
 10
-112.512
 20
148.411
 11
-112.598
 21
148.229
  0
LINE
  8
0
 10
-112.598
 20
148.229
 11
-112.706
 21
148.06
  0
LINE
  8
0
 10
-112.706
 20
148.06
 11
-112.834
 21
147.905
  0
LINE
  8
0
 10
-112.834
 20
147.905
 11
-112.98
 21
147.767
  0
LINE
  8
0
 10
-112.98
 20
147.767
 11
-113.143
 21
147.649
  0
LINE
  8
0
 10
-113.143
 20
147.649
 11
-113.319
 21
147.552
  0
LINE
  8
0
 10
-113.319
 20
147.552
 11
-113.506
 21
147.478
  0
LINE
  8
0
 10
-113.506
 20
147.478
 11
-113.7
 21
147.428
  0
LINE
  8
0
 10
-113.7
 20
147.428
 11
-113.9
 21
147.403
  0
LINE
  8
0
 10
-113.9
 20
147.403
 11
-114.1
 21
147.403
  0
LINE
  8
0
 10
113.9
 20
147.403
 11
113.7
 21
147.428
  0
LINE
  8
0
 10
113.7
 20
147.428
 11
113.506
 21
147.478
  0
LINE
  8
0
 10
113.506
 20
147.478
 11
113.319
 21
147.552
  0
LINE
  8
0
 10
113.319
 20
147.552
 11
113.143
 21
147.649
  0
LINE
  8
0
 10
113.143
 20
147.649
 11
112.98
 21
147.767
  0
LINE
  8
0
 10
112.98
 20
147.767
 11
112.834
 21
147.905
  0
LINE
  8
0
 10
112.834
 20
147.905
 11
112.706
 21
148.06
  0
LINE
  8
0
 10
112.706
 20
148.06
 11
112.598
 21
148.229
  0
LINE
  8
0
 10
112.598
 20
148.229
 11
112.512
 21
148.411
  0
LINE
  8
0
 10
112.512
 20
148.411
 11
112.45
 21
148.602
  0
LINE
  8
0
 10
112.45
 20
148.602
 11
112.413
 21
148.799
  0
LINE
  8
0
 10
112.413
 20
148.799
 11
112.4
 21
149
  0
LINE
  8
0
 10
112.4
 20
149
 11
112.413
 21
149.201
  0
LINE
  8
0
 10
112.413
 20
149.201
 11
112.45
 21
149.398
  0
LINE
  8
0
 10
112.45
 20
149.398
 11
112.512
 21
149.589
  0
LINE
  8
0
 10
112.512
 20
149.589
 11
112.598
 21
149.771
  0
LINE
  8
0
 10
112.598
 20
149.771
 11
112.706
 21
149.94
  0
LINE
  8
0
 10
112.706
 20
149.94
 11
112.834
 21
150.095
  0
LINE
  8
0
 10
112.834
 20
150.095
 11
112.98
 21
150.233
  0
LINE
  8
0
 10
112.98
 20
150.233
 11
113.143
 21
150.351
  0
LINE
  8
0
 10
113.143
 20
150.351
 11
113.319
 21
150.448
  0
LINE
  8
0
 10
113.319
 20
150.448
 11
113.506
 21
150.522
  0
LINE
  8
0
 10
113.506
 20
150.522
 11
113.7
 21
150.572
  0
LINE
  8
0
 10
113.7
 20
150.572
 11
113.9
 21
150.597
  0
LINE
  8
0
 10
113.9
 20
150.597
 11
114.1
 21
150.597
  0
LINE
  8
0
 10
114.1
 20
150.597
 11
114.3
 21
150.572
  0
LINE
  8
0
 10
114.3
 20
150.572
 11
114.494
 21
150.522
  0
LINE
  8
0
 10
114.494
 20
150.522
 11
114.681
 21
150.448
  0
LINE
  8
0
 10
114.681
 20
150.448
 11
114.857
 21
150.351
  0
LINE
  8
0
 10
114.857
 20
150.351
 11
115.02
 21
150.233
  0
LINE
  8
0
 10
115.02
 20
150.233
 11
115.166
 21
150.095
  0
LINE
  8
0
 10
115.166
 20
150.095
 11
115.294
 21
149.94
  0
LINE
  8
0
 10
115.294
 20
149.94
 11
115.402
 21
149.771
  0
LINE
  8
0
 10
115.402
 20
149.771
 11
115.488
 21
149.589
  0
LINE
  8
0
 10
115.488
 20
149.589
 11
115.55
 21
149.398
  0
LINE
  8
0
 10
115.55
 20
149.398
 11
115.587
 21
149.201
  0
LINE
  8
0
 10
115.587
 20
149.201
 11
115.6
 21
149
  0
LINE
  8
0
 10
115.6
 20
149
 11
115.587
 21
148.799
  0
LINE
  8
0
 10
115.587
 20
148.799
 11
115.55
 21
148.602
  0
LINE
  8
0
 10
115.55
 20
148.602
 11
115.488
 21
148.411
  0
LINE
  8
0
 10
115.488
 20
148.411
 11
115.402
 21
148.229
  0
LINE
  8
0
 10
115.402
 20
148.229
 11
115.294
 21
148.06
  0
LINE
  8
0
 10
115.294
 20
148.06
 11
115.166
 21
147.905
  0
LINE
  8
0
 10
115.166
 20
147.905
 11
115.02
 21
147.767
  0
LINE
  8
0
 10
115.02
 20
147.767
 11
114.857
 21
147.649
  0
LINE
  8
0
 10
114.857
 20
147.649
 11
114.681
 21
147.552
  0
LINE
  8
0
 10
114.681
 20
147.552
 11
114.494
 21
147.478
  0
LINE
  8
0
 10
114.494
 20
147.478
 11
114.3
 21
147.428
  0
LINE
  8
0
 10
114.3
 20
147.428
 11
114.1
 21
147.403
  0
LINE
  8
0
 10
114.1
 20
147.403
 11
113.9
 21
147.403
  0
LINE
  8
0
 10
-114.1
 20
84.4032
 11
-114.3
 21
84.4283
  0
LINE
  8
0
 10
-114.3
 20
84.4283
 11
-114.494
 21
84.4783
  0
LINE
  8
0
 10
-114.494
 20
84.4783
 11
-114.681
 21
84.5523
  0
LINE
  8
0
 10
-114.681
 20
84.5523
 11
-114.857
 21
84.6491
  0
LINE
  8
0
 10
-114.857
 20
84.6491
 11
-115.02
 21
84.7672
  0
LINE
  8
0
 10
-115.02
 20
84.7672
 11
-115.166
 21
84.9047
  0
LINE
  8
0
 10
-115.166
 20
84.9047
 11
-115.294
 21
85.0595
  0
LINE
  8
0
 10
-115.294
 20
85.0595
 11
-115.402
 21
85.2292
  0
LINE
  8
0
 10
-115.402
 20
85.2292
 11
-115.488
 21
85.411
  0
LINE
  8
0
 10
-115.488
 20
85.411
 11
-115.55
 21
85.6021
  0
LINE
  8
0
 10
-115.55
 20
85.6021
 11
-115.587
 21
85.7995
  0
LINE
  8
0
 10
-115.587
 20
85.7995
 11
-115.6
 21
86
  0
LINE
  8
0
 10
-115.6
 20
86
 11
-115.587
 21
86.2005
  0
LINE
  8
0
 10
-115.587
 20
86.2005
 11
-115.55
 21
86.3979
  0
LINE
  8
0
 10
-115.55
 20
86.3979
 11
-115.488
 21
86.589
  0
LINE
  8
0
 10
-115.488
 20
86.589
 11
-115.402
 21
86.7708
  0
LINE
  8
0
 10
-115.402
 20
86.7708
 11
-115.294
 21
86.9404
  0
LINE
  8
0
 10
-115.294
 20
86.9404
 11
-115.166
 21
87.0953
  0
LINE
  8
0
 10
-115.166
 20
87.0953
 11
-115.02
 21
87.2328
  0
LINE
  8
0
 10
-115.02
 20
87.2328
 11
-114.857
 21
87.3509
  0
LINE
  8
0
 10
-114.857
 20
87.3509
 11
-114.681
 21
87.4477
  0
LINE
  8
0
 10
-114.681
 20
87.4477
 11
-114.494
 21
87.5217
  0
LINE
  8
0
 10
-114.494
 20
87.5217
 11
-114.3
 21
87.5717
  0
LINE
  8
0
 10
-114.3
 20
87.5717
 11
-114.1
 21
87.5968
  0
LINE
  8
0
 10
-114.1
 20
87.5968
 11
-113.9
 21
87.5968
  0
LINE
  8
0
 10
-113.9
 20
87.5968
 11
-113.7
 21
87.5717
  0
LINE
  8
0
 10
-113.7
 20
87.5717
 11
-113.506
 21
87.5217
  0
LINE
  8
0
 10
-113.506
 20
87.5217
 11
-113.319
 21
87.4477
  0
LINE
  8
0
 10
-113.319
 20
87.4477
 11
-113.143
 21
87.3509
  0
LINE
  8
0
 10
-113.143
 20
87.3509
 11
-112.98
 21
87.2328
  0
LINE
  8
0
 10
-112.98
 20
87.2328
 11
-112.834
 21
87.0953
  0
LINE
  8
0
 10
-112.834
 20
87.0953
 11
-112.706
 21
86.9404
  0
LINE
  8
0
 10
-112.706
 20
86.9404
 11
-112.598
 21
86.7708
  0
LINE
  8
0
 10
-112.598
 20
86.7708
 11
-112.512
 21
86.589
  0
LINE
  8
0
 10
-112.512
 20
86.589
 11
-112.45
 21
86.3979
  0
LINE
  8
0
 10
-112.45
 20
86.3979
 11
-112.413
 21
86.2005
  0
LINE
  8
0
 10
-112.413
 20
86.2005
 11
-112.4
 21
86
  0
LINE
  8
0
 10
-112.4
 20
86
 11
-112.413
 21
85.7995
  0
LINE
  8
0
 10
-112.413
 20
85.7995
 11
-112.45
 21
85.6021
  0
LINE
  8
0
 10
-112.45
 20
85.6021
 11
-112.512
 21
85.411
  0
LINE
  8
0
 10
-112.512
 20
85.411
 11
-112.598
 21
85.2292
  0
LINE
  8
0
 10
-112.598
 20
85.2292
 11
-112.706
 21
85.0595
  0
LINE
  8
0
 10
-112.706
 20
85.0595
 11
-112.834
 21
84.9047
  0
LINE
  8
0
 10
-112.834
 20
84.9047
 11
-112.98
 21
84.7672
  0
LINE
  8
0
 10
-112.98
 20
84.7672
 11
-113.143
 21
84.6491
  0
LINE
  8
0
 10
-113.143
 20
84.6491
 11
-113.319
 21
84.5523
  0
LINE
  8
0
 10
-113.319
 20
84.5523
 11
-113.506
 21
84.4783
  0
LINE
  8
0
 10
-113.506
 20
84.4783
 11
-113.7
 21
84.4283
  0
LINE
  8
0
 10
-113.7
 20
84.4283
 11
-113.9
 21
84.4032
  0
LINE
  8
0
 10
-113.9
 20
84.4032
 11
-114.1
 21
84.4032
  0
LINE
  8
0
 10
113.9
 20
84.4032
 11
113.7
 21
84.4283
  0
LINE
  8
0
 10
113.7
 20
84.4283
 11
113.506
 21
84.4783
  0
LINE
  8
0
 10
113.506
 20
84.4783
 11
113.319
 21
84.5523
  0
LINE
  8
0
 10
113.319
 20
84.5523
 11
113.143
 21
84.6491
  0
LINE
  8
0
 10
113.143
 20
84.6491
 11
112.98
 21
84.7672
  0
LINE
  8
0
 10
112.98
 20
84.7672
 11
112.834
 21
84.9047
  0
LINE
  8
0
 10
112.834
 20
84.9047
 11
112.706
 21
85.0595
  0
LINE
  8
0
 10
112.706
 20
85.0595
 11
112.598
 21
85.2292
  0
LINE
  8
0
 10
112.598
 20
85.2292
 11
112.512
 21
85.411
  0
LINE
  8
0
 10
112.512
 20
85.411
 11
112.45
 21
85.6021
  0
LINE
  8
0
 10
112.45
 20
85.6021
 11
112.413
 21
85.7995
  0
LINE
  8
0
 10
112.413
 20
85.7995
 11
112.4
 21
86
  0
LINE
  8
0
 10
112.4
 20
86
 11
112.413
 21
86.2005
  0
LINE
  8
0
 10
112.413
 20
86.2005
 11
112.45
 21
86.3979
  0
LINE
  8
0
 10
112.45
 20
86.3979
 11
112.512
 21
86.589
  0
LINE
  8
0
 10
112.512
 20
86.589
 11
112.598
 21
86.7708
  0
LINE
  8
0
 10
112.598
 20
86.7708
 11
112.706
 21
86.9404
  0
LINE
  8
0
 10
112.706
 20
86.9404
 11
112.834
 21
87.0953
  0
LINE
  8
0
 10
112.834
 20
87.0953
 11
112.98
 21
87.2328
  0
LINE
  8
0
 10
112.98
 20
87.2328
 11
113.143
 21
87.3509
  0
LINE
  8
0
 10
113.143
 20
87.3509
 11
113.319
 21
87.4477
  0
LINE
  8
0
 10
113.319
 20
87.4477
 11
113.506
 21
87.5217
  0
LINE
  8
0
 10
113.506
 20
87.5217
 11
113.7
 21
87.5717
  0
LINE
  8
0
 10
113.7
 20
87.5717
 11
113.9
 21
87.5968
  0
LINE
  8
0
 10
113.9
 20
87.5968
 11
114.1
 21
87.5968
  0
LINE
  8
0
 10
114.1
 20
87.5968
 11
114.3
 21
87.5717
  0
LINE
  8
0
 10
114.3
 20
87.5717
 11
114.494
 21
87.5217
  0
LINE
  8
0
 10
114.494
 20
87.5217
 11
114.681
 21
87.4477
  0
LINE
  8
0
 10
114.681
 20
87.4477
 11
114.857
 21
87.3509
  0
LINE
  8
0
 10
114.857
 20
87.3509
 11
115.02
 21
87.2328
  0
LINE
  8
0
 10
115.02
 20
87.2328
 11
115.166
 21
87.0953
  0
LINE
  8
0
 10
115.166
 20
87.0953
 11
115.294
 21
86.9404
  0
LINE
  8
0
 10
115.294
 20
86.9404
 11
115.402
 21
86.7708
  0
LINE
  8
0
 10
115.402
 20
86.7708
 11
115.488
 21
86.589
  0
LINE
  8
0
 10
115.488
 20
86.589
 11
115.55
 21
86.3979
  0
LINE
  8
0
 10
115.55
 20
86.3979
 11
115.587
 21
86.2005
  0
LINE
  8
0
 10
115.587
 20
86.2005
 11
115.6
 21
86
  0
LINE
  8
0
 10
115.6
 20
86
 11
115.587
 21
85.7995
  0
LINE
  8
0
 10
115.587
 20
85.7995
 11
115.55
 21
85.6021
  0
LINE
  8
0
 10
115.55
 20
85.6021
 11
115.488
 21
85.411
  0
LINE
  8
0
 10
115.488
 20
85.411
 11
115.402
 21
85.2292
  0
LINE
  8
0
 10
115.402
 20
85.2292
 11
115.294
 21
85.0595
  0
LINE
  8
0
 10
115.294
 20
85.0595
 11
115.166
 21
84.9047
  0
LINE
  8
0
 10
115.166
 20
84.9047
 11
115.02
 21
84.7672
  0
LINE
  8
0
 10
115.02
 20
84.7672
 11
114.857
 21
84.6491
  0
LINE
  8
0
 10
114.857
 20
84.6491
 11
114.681
 21
84.5523
  0
LINE
  8
0
 10
114.681
 20
84.5523
 11
114.494
 21
84.4783
  0
LINE
  8
0
 10
114.494
 20
84.4783
 11
114.3
 21
84.4283
  0
LINE
  8
0
 10
114.3
 20
84.4283
 11
114.1
 21
84.4032
  0
LINE
  8
0
 10
114.1
 20
84.4032
 11
113.9
 21
84.4032
  0
LINE
  8
0
 10
25.1495
 20
68.6532
 11
24.9502
 21
68.6783
  0
LINE
  8
0
 10
24.9502
 20
68.6783
 11
24.7556
 21
68.7283
  0
LINE
  8
0
 10
24.7556
 20
68.7283
 11
24.5687
 21
68.8023
  0
LINE
  8
0
 10
24.5687
 20
68.8023
 11
24.3927
 21
68.8991
  0
LINE
  8
0
 10
24.3927
 20
68.8991
 11
24.2301
 21
69.0172
  0
LINE
  8
0
 10
24.2301
 20
69.0172
 11
24.0836
 21
69.1547
  0
LINE
  8
0
 10
24.0836
 20
69.1547
 11
23.9556
 21
69.3095
  0
LINE
  8
0
 10
23.9556
 20
69.3095
 11
23.8479
 21
69.4792
  0
LINE
  8
0
 10
23.8479
 20
69.4792
 11
23.7623
 21
69.661
  0
LINE
  8
0
 10
23.7623
 20
69.661
 11
23.7003
 21
69.8521
  0
LINE
  8
0
 10
23.7003
 20
69.8521
 11
23.6626
 21
70.0495
  0
LINE
  8
0
 10
23.6626
 20
70.0495
 11
23.65
 21
70.25
  0
LINE
  8
0
 10
23.65
 20
70.25
 11
23.6626
 21
70.4505
  0
LINE
  8
0
 10
23.6626
 20
70.4505
 11
23.7003
 21
70.6479
  0
LINE
  8
0
 10
23.7003
 20
70.6479
 11
23.7623
 21
70.839
  0
LINE
  8
0
 10
23.7623
 20
70.839
 11
23.8479
 21
71.0208
  0
LINE
  8
0
 10
23.8479
 20
71.0208
 11
23.9556
 21
71.1904
  0
LINE
  8
0
 10
23.9556
 20
71.1904
 11
24.0836
 21
71.3453
  0
LINE
  8
0
 10
24.0836
 20
71.3453
 11
24.2301
 21
71.4828
  0
LINE
  8
0
 10
24.2301
 20
71.4828
 11
24.3927
 21
71.6009
  0
LINE
  8
0
 10
24.3927
 20
71.6009
 11
24.5687
 21
71.6977
  0
LINE
  8
0
 10
24.5687
 20
71.6977
 11
24.7556
 21
71.7717
  0
LINE
  8
0
 10
24.7556
 20
71.7717
 11
24.9502
 21
71.8217
  0
LINE
  8
0
 10
24.9502
 20
71.8217
 11
25.1495
 21
71.8468
  0
LINE
  8
0
 10
25.1495
 20
71.8468
 11
25.3505
 21
71.8468
  0
LINE
  8
0
 10
25.3505
 20
71.8468
 11
25.5498
 21
71.8217
  0
LINE
  8
0
 10
25.5498
 20
71.8217
 11
25.7444
 21
71.7717
  0
LINE
  8
0
 10
25.7444
 20
71.7717
 11
25.9312
 21
71.6977
  0
LINE
  8
0
 10
25.9312
 20
71.6977
 11
26.1073
 21
71.6009
  0
LINE
  8
0
 10
26.1073
 20
71.6009
 11
26.2699
 21
71.4828
  0
LINE
  8
0
 10
26.2699
 20
71.4828
 11
26.4163
 21
71.3453
  0
LINE
  8
0
 10
26.4163
 20
71.3453
 11
26.5444
 21
71.1904
  0
LINE
  8
0
 10
26.5444
 20
71.1904
 11
26.6521
 21
71.0208
  0
LINE
  8
0
 10
26.6521
 20
71.0208
 11
26.7376
 21
70.839
  0
LINE
  8
0
 10
26.7376
 20
70.839
 11
26.7997
 21
70.6479
  0
LINE
  8
0
 10
26.7997
 20
70.6479
 11
26.8374
 21
70.4505
  0
LINE
  8
0
 10
26.8374
 20
70.4505
 11
26.85
 21
70.25
  0
LINE
  8
0
 10
26.85
 20
70.25
 11
26.8374
 21
70.0495
  0
LINE
  8
0
 10
26.8374
 20
70.0495
 11
26.7997
 21
69.8521
  0
LINE
  8
0
 10
26.7997
 20
69.8521
 11
26.7376
 21
69.661
  0
LINE
  8
0
 10
26.7376
 20
69.661
 11
26.6521
 21
69.4792
  0
LINE
  8
0
 10
26.6521
 20
69.4792
 11
26.5444
 21
69.3095
  0
LINE
  8
0
 10
26.5444
 20
69.3095
 11
26.4163
 21
69.1547
  0
LINE
  8
0
 10
26.4163
 20
69.1547
 11
26.2699
 21
69.0172
  0
LINE
  8
0
 10
26.2699
 20
69.0172
 11
26.1073
 21
68.8991
  0
LINE
  8
0
 10
26.1073
 20
68.8991
 11
25.9312
 21
68.8023
  0
LINE
  8
0
 10
25.9312
 20
68.8023
 11
25.7444
 21
68.7283
  0
LINE
  8
0
 10
25.7444
 20
68.7283
 11
25.5498
 21
68.6783
  0
LINE
  8
0
 10
25.5498
 20
68.6783
 11
25.3505
 21
68.6532
  0
LINE
  8
0
 10
25.3505
 20
68.6532
 11
25.1495
 21
68.6532
  0
LINE
  8
0
 10
-4.85046
 20
68.6532
 11
-5.0498
 21
68.6783
  0
LINE
  8
0
 10
-5.0498
 20
68.6783
 11
-5.24442
 21
68.7283
  0
LINE
  8
0
 10
-5.24442
 20
68.7283
 11
-5.43124
 21
68.8023
  0
LINE
  8
0
 10
-5.43124
 20
68.8023
 11
-5.60732
 21
68.8991
  0
LINE
  8
0
 10
-5.60732
 20
68.8991
 11
-5.76987
 21
69.0172
  0
LINE
  8
0
 10
-5.76987
 20
69.0172
 11
-5.91634
 21
69.1547
  0
LINE
  8
0
 10
-5.91634
 20
69.1547
 11
-6.04442
 21
69.3095
  0
LINE
  8
0
 10
-6.04442
 20
69.3095
 11
-6.15208
 21
69.4792
  0
LINE
  8
0
 10
-6.15208
 20
69.4792
 11
-6.23764
 21
69.661
  0
LINE
  8
0
 10
-6.23764
 20
69.661
 11
-6.29973
 21
69.8521
  0
LINE
  8
0
 10
-6.29973
 20
69.8521
 11
-6.33737
 21
70.0495
  0
LINE
  8
0
 10
-6.33737
 20
70.0495
 11
-6.34999
 21
70.25
  0
LINE
  8
0
 10
-6.34999
 20
70.25
 11
-6.33737
 21
70.4505
  0
LINE
  8
0
 10
-6.33737
 20
70.4505
 11
-6.29973
 21
70.6479
  0
LINE
  8
0
 10
-6.29973
 20
70.6479
 11
-6.23764
 21
70.839
  0
LINE
  8
0
 10
-6.23764
 20
70.839
 11
-6.15208
 21
71.0208
  0
LINE
  8
0
 10
-6.15208
 20
71.0208
 11
-6.04442
 21
71.1904
  0
LINE
  8
0
 10
-6.04442
 20
71.1904
 11
-5.91634
 21
71.3453
  0
LINE
  8
0
 10
-5.91634
 20
71.3453
 11
-5.76987
 21
71.4828
  0
LINE
  8
0
 10
-5.76987
 20
71.4828
 11
-5.60732
 21
71.6009
  0
LINE
  8
0
 10
-5.60732
 20
71.6009
 11
-5.43124
 21
71.6977
  0
LINE
  8
0
 10
-5.43124
 20
71.6977
 11
-5.24442
 21
71.7717
  0
LINE
  8
0
 10
-5.24442
 20
71.7717
 11
-5.0498
 21
71.8217
  0
LINE
  8
0
 10
-5.0498
 20
71.8217
 11
-4.85046
 21
71.8468
  0
LINE
  8
0
 10
-4.85046
 20
71.8468
 11
-4.64952
 21
71.8468
  0
LINE
  8
0
 10
-4.64952
 20
71.8468
 11
-4.45018
 21
71.8217
  0
LINE
  8
0
 10
-4.45018
 20
71.8217
 11
-4.25557
 21
71.7717
  0
LINE
  8
0
 10
-4.25557
 20
71.7717
 11
-4.06874
 21
71.6977
  0
LINE
  8
0
 10
-4.06874
 20
71.6977
 11
-3.89267
 21
71.6009
  0
LINE
  8
0
 10
-3.89267
 20
71.6009
 11
-3.73012
 21
71.4828
  0
LINE
  8
0
 10
-3.73012
 20
71.4828
 11
-3.58365
 21
71.3453
  0
LINE
  8
0
 10
-3.58365
 20
71.3453
 11
-3.45557
 21
71.1904
  0
LINE
  8
0
 10
-3.45557
 20
71.1904
 11
-3.3479
 21
71.0208
  0
LINE
  8
0
 10
-3.3479
 20
71.0208
 11
-3.26234
 21
70.839
  0
LINE
  8
0
 10
-3.26234
 20
70.839
 11
-3.20026
 21
70.6479
  0
LINE
  8
0
 10
-3.20026
 20
70.6479
 11
-3.16261
 21
70.4505
  0
LINE
  8
0
 10
-3.16261
 20
70.4505
 11
-3.14999
 21
70.25
  0
LINE
  8
0
 10
-3.14999
 20
70.25
 11
-3.16261
 21
70.0495
  0
LINE
  8
0
 10
-3.16261
 20
70.0495
 11
-3.20026
 21
69.8521
  0
LINE
  8
0
 10
-3.20026
 20
69.8521
 11
-3.26234
 21
69.661
  0
LINE
  8
0
 10
-3.26234
 20
69.661
 11
-3.3479
 21
69.4792
  0
LINE
  8
0
 10
-3.3479
 20
69.4792
 11
-3.45557
 21
69.3095
  0
LINE
  8
0
 10
-3.45557
 20
69.3095
 11
-3.58365
 21
69.1547
  0
LINE
  8
0
 10
-3.58365
 20
69.1547
 11
-3.73012
 21
69.0172
  0
LINE
  8
0
 10
-3.73012
 20
69.0172
 11
-3.89267
 21
68.8991
  0
LINE
  8
0
 10
-3.89267
 20
68.8991
 11
-4.06874
 21
68.8023
  0
LINE
  8
0
 10
-4.06874
 20
68.8023
 11
-4.25557
 21
68.7283
  0
LINE
  8
0
 10
-4.25557
 20
68.7283
 11
-4.45018
 21
68.6783
  0
LINE
  8
0
 10
-4.45018
 20
68.6783
 11
-4.64952
 21
68.6532
  0
LINE
  8
0
 10
-4.64952
 20
68.6532
 11
-4.85046
 21
68.6532
  0
LINE
  8
0
 10
14.4192
 20
50.7682
 11
13.2667
 21
50.9138
  0
LINE
  8
0
 10
13.2667
 20
50.9138
 11
12.1416
 21
51.2027
  0
LINE
  8
0
 10
12.1416
 20
51.2027
 11
11.0615
 21
51.6303
  0
LINE
  8
0
 10
11.0615
 20
51.6303
 11
10.0436
 21
52.19
  0
LINE
  8
0
 10
10.0436
 20
52.19
 11
9.10382
 21
52.8727
  0
LINE
  8
0
 10
9.10382
 20
52.8727
 11
8.25703
 21
53.6679
  0
LINE
  8
0
 10
8.25703
 20
53.6679
 11
7.51659
 21
54.563
  0
LINE
  8
0
 10
7.51659
 20
54.563
 11
6.89415
 21
55.5438
  0
LINE
  8
0
 10
6.89415
 20
55.5438
 11
6.39957
 21
56.5948
  0
LINE
  8
0
 10
6.39957
 20
56.5948
 11
6.0406
 21
57.6996
  0
LINE
  8
0
 10
6.0406
 20
57.6996
 11
5.82294
 21
58.8407
  0
LINE
  8
0
 10
5.82294
 20
58.8407
 11
5.75
 21
60
  0
LINE
  8
0
 10
5.75
 20
60
 11
5.82294
 21
61.1593
  0
LINE
  8
0
 10
5.82294
 20
61.1593
 11
6.0406
 21
62.3004
  0
LINE
  8
0
 10
6.0406
 20
62.3004
 11
6.39957
 21
63.4052
  0
LINE
  8
0
 10
6.39957
 20
63.4052
 11
6.89415
 21
64.4562
  0
LINE
  8
0
 10
6.89415
 20
64.4562
 11
7.51659
 21
65.437
  0
LINE
  8
0
 10
7.51659
 20
65.437
 11
8.25703
 21
66.332
  0
LINE
  8
0
 10
8.25703
 20
66.332
 11
9.10382
 21
67.1272
  0
LINE
  8
0
 10
9.10382
 20
67.1272
 11
10.0436
 21
67.81
  0
LINE
  8
0
 10
10.0436
 20
67.81
 11
11.0615
 21
68.3696
  0
LINE
  8
0
 10
11.0615
 20
68.3696
 11
12.1416
 21
68.7973
  0
LINE
  8
0
 10
12.1416
 20
68.7973
 11
13.2667
 21
69.0862
  0
LINE
  8
0
 10
13.2667
 20
69.0862
 11
14.4192
 21
69.2317
  0
LINE
  8
0
 10
14.4192
 20
69.2317
 11
15.5808
 21
69.2317
  0
LINE
  8
0
 10
15.5808
 20
69.2317
 11
16.7333
 21
69.0862
  0
LINE
  8
0
 10
16.7333
 20
69.0862
 11
17.8584
 21
68.7973
  0
LINE
  8
0
 10
17.8584
 20
68.7973
 11
18.9384
 21
68.3696
  0
LINE
  8
0
 10
18.9384
 20
68.3696
 11
19.9564
 21
67.81
  0
LINE
  8
0
 10
19.9564
 20
67.81
 11
20.8962
 21
67.1272
  0
LINE
  8
0
 10
20.8962
 20
67.1272
 11
21.743
 21
66.332
  0
LINE
  8
0
 10
21.743
 20
66.332
 11
22.4834
 21
65.437
  0
LINE
  8
0
 10
22.4834
 20
65.437
 11
23.1058
 21
64.4562
  0
LINE
  8
0
 10
23.1058
 20
64.4562
 11
23.6004
 21
63.4052
  0
LINE
  8
0
 10
23.6004
 20
63.4052
 11
23.9594
 21
62.3004
  0
LINE
  8
0
 10
23.9594
 20
62.3004
 11
24.177
 21
61.1593
  0
LINE
  8
0
 10
24.177
 20
61.1593
 11
24.25
 21
60
  0
LINE
  8
0
 10
24.25
 20
60
 11
24.177
 21
58.8407
  0
LINE
  8
0
 10
24.177
 20
58.8407
 11
23.9594
 21
57.6996
  0
LINE
  8
0
 10
23.9594
 20
57.6996
 11
23.6004
 21
56.5948
  0
LINE
  8
0
 10
23.6004
 20
56.5948
 11
23.1058
 21
55.5438
  0
LINE
  8
0
 10
23.1058
 20
55.5438
 11
22.4834
 21
54.563
  0
LINE
  8
0
 10
22.4834
 20
54.563
 11
21.743
 21
53.6679
  0
LINE
  8
0
 10
21.743
 20
53.6679
 11
20.8962
 21
52.8727
  0
LINE
  8
0
 10
20.8962
 20
52.8727
 11
19.9564
 21
52.19
  0
LINE
  8
0
 10
19.9564
 20
52.19
 11
18.9384
 21
51.6303
  0
LINE
  8
0
 10
18.9384
 20
51.6303
 11
17.8584
 21
51.2027
  0
LINE
  8
0
 10
17.8584
 20
51.2027
 11
16.7333
 21
50.9138
  0
LINE
  8
0
 10
16.7333
 20
50.9138
 11
15.5808
 21
50.7682
  0
LINE
  8
0
 10
15.5808
 20
50.7682
 11
14.4192
 21
50.7682
  0
LINE
  8
0
 10
-15.5808
 20
50.7682
 11
-16.7333
 21
50.9138
  0
LINE
  8
0
 10
-16.7333
 20
50.9138
 11
-17.8584
 21
51.2027
  0
LINE
  8
0
 10
-17.8584
 20
51.2027
 11
-18.9384
 21
51.6303
  0
LINE
  8
0
 10
-18.9384
 20
51.6303
 11
-19.9564
 21
52.19
  0
LINE
  8
0
 10
-19.9564
 20
52.19
 11
-20.8962
 21
52.8727
  0
LINE
  8
0
 10
-20.8962
 20
52.8727
 11
-21.743
 21
53.6679
  0
LINE
  8
0
 10
-21.743
 20
53.6679
 11
-22.4834
 21
54.563
  0
LINE
  8
0
 10
-22.4834
 20
54.563
 11
-23.1058
 21
55.5438
  0
LINE
  8
0
 10
-23.1058
 20
55.5438
 11
-23.6004
 21
56.5948
  0
LINE
  8
0
 10
-23.6004
 20
56.5948
 11
-23.9594
 21
57.6996
  0
LINE
  8
0
 10
-23.9594
 20
57.6996
 11
-24.177
 21
58.8407
  0
LINE
  8
0
 10
-24.177
 20
58.8407
 11
-24.25
 21
60
  0
LINE
  8
0
 10
-24.25
 20
60
 11
-24.177
 21
61.1593
  0
LINE
  8
0
 10
-24.177
 20
61.1593
 11
-23.9594
 21
62.3004
  0
LINE
  8
0
 10
-23.9594
 20
62.3004
 11
-23.6004
 21
63.4052
  0
LINE
  8
0
 10
-23.6004
 20
63.4052
 11
-23.1058
 21
64.4562
  0
LINE
  8
0
 10
-23.1058
 20
64.4562
 11
-22.4834
 21
65.437
  0
LINE
  8
0
 10
-22.4834
 20
65.437
 11
-21.743
 21
66.332
  0
LINE
  8
0
 10
-21.743
 20
66.332
 11
-20.8962
 21
67.1272
  0
LINE
  8
0
 10
-20.8962
 20
67.1272
 11
-19.9564
 21
67.81
  0
LINE
  8
0
 10
-19.9564
 20
67.81
 11
-18.9384
 21
68.3696
  0
LINE
  8
0
 10
-18.9384
 20
68.3696
 11
-17.8584
 21
68.7973
  0
LINE
  8
0
 10
-17.8584
 20
68.7973
 11
-16.7333
 21
69.0862
  0
LINE
  8
0
 10
-16.7333
 20
69.0862
 11
-15.5808
 21
69.2317
  0
LINE
  8
0
 10
-15.5808
 20
69.2317
 11
-14.4192
 21
69.2317
  0
LINE
  8
0
 10
-14.4192
 20
69.2317
 11
-13.2667
 21
69.0862
  0
LINE
  8
0
 10
-13.2667
 20
69.0862
 11
-12.1416
 21
68.7973
  0
LINE
  8
0
 10
-12.1416
 20
68.7973
 11
-11.0615
 21
68.3696
  0
LINE
  8
0
 10
-11.0615
 20
68.3696
 11
-10.0436
 21
67.81
  0
LINE
  8
0
 10
-10.0436
 20
67.81
 11
-9.10382
 21
67.1272
  0
LINE
  8
0
 10
-9.10382
 20
67.1272
 11
-8.25703
 21
66.332
  0
LINE
  8
0
 10
-8.25703
 20
66.332
 11
-7.51659
 21
65.437
  0
LINE
  8
0
 10
-7.51659
 20
65.437
 11
-6.89415
 21
64.4562
  0
LINE
  8
0
 10
-6.89415
 20
64.4562
 11
-6.39957
 21
63.4052
  0
LINE
  8
0
 10
-6.39957
 20
63.4052
 11
-6.0406
 21
62.3004
  0
LINE
  8
0
 10
-6.0406
 20
62.3004
 11
-5.82294
 21
61.1593
  0
LINE
  8
0
 10
-5.82294
 20
61.1593
 11
-5.75
 21
60
  0
LINE
  8
0
 10
-5.75
 20
60
 11
-5.82294
 21
58.8407
  0
LINE
  8
0
 10
-5.82294
 20
58.8407
 11
-6.0406
 21
57.6996
  0
LINE
  8
0
 10
-6.0406
 20
57.6996
 11
-6.39957
 21
56.5948
  0
LINE
  8
0
 10
-6.39957
 20
56.5948
 11
-6.89415
 21
55.5438
  0
LINE
  8
0
 10
-6.89415
 20
55.5438
 11
-7.51659
 21
54.563
  0
LINE
  8
0
 10
-7.51659
 20
54.563
 11
-8.25703
 21
53.6679
  0
LINE
  8
0
 10
-8.25703
 20
53.6679
 11
-9.10382
 21
52.8727
  0
LINE
  8
0
 10
-9.10382
 20
52.8727
 11
-10.0436
 21
52.19
  0
LINE
  8
0
 10
-10.0436
 20
52.19
 11
-11.0615
 21
51.6303
  0
LINE
  8
0
 10
-11.0615
 20
51.6303
 11
-12.1416
 21
51.2027
  0
LINE
  8
0
 10
-12.1416
 20
51.2027
 11
-13.2667
 21
50.9138
  0
LINE
  8
0
 10
-13.2667
 20
50.9138
 11
-14.4192
 21
50.7682
  0
LINE
  8
0
 10
-14.4192
 20
50.7682
 11
-15.5808
 21
50.7682
  0
LINE
  8
0
 10
55.1495
 20
62.6532
 11
54.9502
 21
62.6783
  0
LINE
  8
0
 10
54.9502
 20
62.6783
 11
54.7556
 21
62.7283
  0
LINE
  8
0
 10
54.7556
 20
62.7283
 11
54.5687
 21
62.8023
  0
LINE
  8
0
 10
54.5687
 20
62.8023
 11
54.3927
 21
62.8991
  0
LINE
  8
0
 10
54.3927
 20
62.8991
 11
54.2301
 21
63.0172
  0
LINE
  8
0
 10
54.2301
 20
63.0172
 11
54.0836
 21
63.1547
  0
LINE
  8
0
 10
54.0836
 20
63.1547
 11
53.9556
 21
63.3095
  0
LINE
  8
0
 10
53.9556
 20
63.3095
 11
53.8479
 21
63.4792
  0
LINE
  8
0
 10
53.8479
 20
63.4792
 11
53.7623
 21
63.661
  0
LINE
  8
0
 10
53.7623
 20
63.661
 11
53.7003
 21
63.8521
  0
LINE
  8
0
 10
53.7003
 20
63.8521
 11
53.6626
 21
64.0495
  0
LINE
  8
0
 10
53.6626
 20
64.0495
 11
53.65
 21
64.25
  0
LINE
  8
0
 10
53.65
 20
64.25
 11
53.6626
 21
64.4505
  0
LINE
  8
0
 10
53.6626
 20
64.4505
 11
53.7003
 21
64.6479
  0
LINE
  8
0
 10
53.7003
 20
64.6479
 11
53.7623
 21
64.839
  0
LINE
  8
0
 10
53.7623
 20
64.839
 11
53.8479
 21
65.0208
  0
LINE
  8
0
 10
53.8479
 20
65.0208
 11
53.9556
 21
65.1904
  0
LINE
  8
0
 10
53.9556
 20
65.1904
 11
54.0836
 21
65.3453
  0
LINE
  8
0
 10
54.0836
 20
65.3453
 11
54.2301
 21
65.4828
  0
LINE
  8
0
 10
54.2301
 20
65.4828
 11
54.3927
 21
65.6009
  0
LINE
  8
0
 10
54.3927
 20
65.6009
 11
54.5687
 21
65.6977
  0
LINE
  8
0
 10
54.5687
 20
65.6977
 11
54.7556
 21
65.7717
  0
LINE
  8
0
 10
54.7556
 20
65.7717
 11
54.9502
 21
65.8217
  0
LINE
  8
0
 10
54.9502
 20
65.8217
 11
55.1495
 21
65.8468
  0
LINE
  8
0
 10
55.1495
 20
65.8468
 11
55.3505
 21
65.8468
  0
LINE
  8
0
 10
55.3505
 20
65.8468
 11
55.5498
 21
65.8217
  0
LINE
  8
0
 10
55.5498
 20
65.8217
 11
55.7444
 21
65.7717
  0
LINE
  8
0
 10
55.7444
 20
65.7717
 11
55.9312
 21
65.6977
  0
LINE
  8
0
 10
55.9312
 20
65.6977
 11
56.1073
 21
65.6009
  0
LINE
  8
0
 10
56.1073
 20
65.6009
 11
56.2699
 21
65.4828
  0
LINE
  8
0
 10
56.2699
 20
65.4828
 11
56.4163
 21
65.3453
  0
LINE
  8
0
 10
56.4163
 20
65.3453
 11
56.5444
 21
65.1904
  0
LINE
  8
0
 10
56.5444
 20
65.1904
 11
56.6521
 21
65.0208
  0
LINE
  8
0
 10
56.6521
 20
65.0208
 11
56.7376
 21
64.839
  0
LINE
  8
0
 10
56.7376
 20
64.839
 11
56.7997
 21
64.6479
  0
LINE
  8
0
 10
56.7997
 20
64.6479
 11
56.8374
 21
64.4505
  0
LINE
  8
0
 10
56.8374
 20
64.4505
 11
56.85
 21
64.25
  0
LINE
  8
0
 10
56.85
 20
64.25
 11
56.8374
 21
64.0495
  0
LINE
  8
0
 10
56.8374
 20
64.0495
 11
56.7997
 21
63.8521
  0
LINE
  8
0
 10
56.7997
 20
63.8521
 11
56.7376
 21
63.661
  0
LINE
  8
0
 10
56.7376
 20
63.661
 11
56.6521
 21
63.4792
  0
LINE
  8
0
 10
56.6521
 20
63.4792
 11
56.5444
 21
63.3095
  0
LINE
  8
0
 10
56.5444
 20
63.3095
 11
56.4163
 21
63.1547
  0
LINE
  8
0
 10
56.4163
 20
63.1547
 11
56.2699
 21
63.0172
  0
LINE
  8
0
 10
56.2699
 20
63.0172
 11
56.1073
 21
62.8991
  0
LINE
  8
0
 10
56.1073
 20
62.8991
 11
55.9312
 21
62.8023
  0
LINE
  8
0
 10
55.9312
 20
62.8023
 11
55.7444
 21
62.7283
  0
LINE
  8
0
 10
55.7444
 20
62.7283
 11
55.5498
 21
62.6783
  0
LINE
  8
0
 10
55.5498
 20
62.6783
 11
55.3505
 21
62.6532
  0
LINE
  8
0
 10
55.3505
 20
62.6532
 11
55.1495
 21
62.6532
  0
LINE
  8
0
 10
-34.8505
 20
62.6532
 11
-35.0498
 21
62.6783
  0
LINE
  8
0
 10
-35.0498
 20
62.6783
 11
-35.2444
 21
62.7283
  0
LINE
  8
0
 10
-35.2444
 20
62.7283
 11
-35.4312
 21
62.8023
  0
LINE
  8
0
 10
-35.4312
 20
62.8023
 11
-35.6073
 21
62.8991
  0
LINE
  8
0
 10
-35.6073
 20
62.8991
 11
-35.7699
 21
63.0172
  0
LINE
  8
0
 10
-35.7699
 20
63.0172
 11
-35.9163
 21
63.1547
  0
LINE
  8
0
 10
-35.9163
 20
63.1547
 11
-36.0444
 21
63.3095
  0
LINE
  8
0
 10
-36.0444
 20
63.3095
 11
-36.1521
 21
63.4792
  0
LINE
  8
0
 10
-36.1521
 20
63.4792
 11
-36.2376
 21
63.661
  0
LINE
  8
0
 10
-36.2376
 20
63.661
 11
-36.2997
 21
63.8521
  0
LINE
  8
0
 10
-36.2997
 20
63.8521
 11
-36.3374
 21
64.0495
  0
LINE
  8
0
 10
-36.3374
 20
64.0495
 11
-36.35
 21
64.25
  0
LINE
  8
0
 10
-36.35
 20
64.25
 11
-36.3374
 21
64.4505
  0
LINE
  8
0
 10
-36.3374
 20
64.4505
 11
-36.2997
 21
64.6479
  0
LINE
  8
0
 10
-36.2997
 20
64.6479
 11
-36.2376
 21
64.839
  0
LINE
  8
0
 10
-36.2376
 20
64.839
 11
-36.1521
 21
65.0208
  0
LINE
  8
0
 10
-36.1521
 20
65.0208
 11
-36.0444
 21
65.1904
  0
LINE
  8
0
 10
-36.0444
 20
65.1904
 11
-35.9163
 21
65.3453
  0
LINE
  8
0
 10
-35.9163
 20
65.3453
 11
-35.7699
 21
65.4828
  0
LINE
  8
0
 10
-35.7699
 20
65.4828
 11
-35.6073
 21
65.6009
  0
LINE
  8
0
 10
-35.6073
 20
65.6009
 11
-35.4312
 21
65.6977
  0
LINE
  8
0
 10
-35.4312
 20
65.6977
 11
-35.2444
 21
65.7717
  0
LINE
  8
0
 10
-35.2444
 20
65.7717
 11
-35.0498
 21
65.8217
  0
LINE
  8
0
 10
-35.0498
 20
65.8217
 11
-34.8505
 21
65.8468
  0
LINE
  8
0
 10
-34.8505
 20
65.8468
 11
-34.6495
 21
65.8468
  0
LINE
  8
0
 10
-34.6495
 20
65.8468
 11
-34.4502
 21
65.8217
  0
LINE
  8
0
 10
-34.4502
 20
65.8217
 11
-34.2556
 21
65.7717
  0
LINE
  8
0
 10
-34.2556
 20
65.7717
 11
-34.0687
 21
65.6977
  0
LINE
  8
0
 10
-34.0687
 20
65.6977
 11
-33.8927
 21
65.6009
  0
LINE
  8
0
 10
-33.8927
 20
65.6009
 11
-33.7301
 21
65.4828
  0
LINE
  8
0
 10
-33.7301
 20
65.4828
 11
-33.5836
 21
65.3453
  0
LINE
  8
0
 10
-33.5836
 20
65.3453
 11
-33.4556
 21
65.1904
  0
LINE
  8
0
 10
-33.4556
 20
65.1904
 11
-33.3479
 21
65.0208
  0
LINE
  8
0
 10
-33.3479
 20
65.0208
 11
-33.2623
 21
64.839
  0
LINE
  8
0
 10
-33.2623
 20
64.839
 11
-33.2003
 21
64.6479
  0
LINE
  8
0
 10
-33.2003
 20
64.6479
 11
-33.1626
 21
64.4505
  0
LINE
  8
0
 10
-33.1626
 20
64.4505
 11
-33.15
 21
64.25
  0
LINE
  8
0
 10
-33.15
 20
64.25
 11
-33.1626
 21
64.0495
  0
LINE
  8
0
 10
-33.1626
 20
64.0495
 11
-33.2003
 21
63.8521
  0
LINE
  8
0
 10
-33.2003
 20
63.8521
 11
-33.2623
 21
63.661
  0
LINE
  8
0
 10
-33.2623
 20
63.661
 11
-33.3479
 21
63.4792
  0
LINE
  8
0
 10
-33.3479
 20
63.4792
 11
-33.4556
 21
63.3095
  0
LINE
  8
0
 10
-33.4556
 20
63.3095
 11
-33.5836
 21
63.1547
  0
LINE
  8
0
 10
-33.5836
 20
63.1547
 11
-33.7301
 21
63.0172
  0
LINE
  8
0
 10
-33.7301
 20
63.0172
 11
-33.8927
 21
62.8991
  0
LINE
  8
0
 10
-33.8927
 20
62.8991
 11
-34.0687
 21
62.8023
  0
LINE
  8
0
 10
-34.0687
 20
62.8023
 11
-34.2556
 21
62.7283
  0
LINE
  8
0
 10
-34.2556
 20
62.7283
 11
-34.4502
 21
62.6783
  0
LINE
  8
0
 10
-34.4502
 20
62.6783
 11
-34.6495
 21
62.6532
  0
LINE
  8
0
 10
-34.6495
 20
62.6532
 11
-34.8505
 21
62.6532
  0
LINE
  8
0
 10
44.4192
 20
44.7682
 11
43.2667
 21
44.9138
  0
LINE
  8
0
 10
43.2667
 20
44.9138
 11
42.1416
 21
45.2027
  0
LINE
  8
0
 10
42.1416
 20
45.2027
 11
41.0615
 21
45.6303
  0
LINE
  8
0
 10
41.0615
 20
45.6303
 11
40.0436
 21
46.19
  0
LINE
  8
0
 10
40.0436
 20
46.19
 11
39.1038
 21
46.8727
  0
LINE
  8
0
 10
39.1038
 20
46.8727
 11
38.257
 21
47.6679
  0
LINE
  8
0
 10
38.257
 20
47.6679
 11
37.5166
 21
48.563
  0
LINE
  8
0
 10
37.5166
 20
48.563
 11
36.8941
 21
49.5438
  0
LINE
  8
0
 10
36.8941
 20
49.5438
 11
36.3996
 21
50.5948
  0
LINE
  8
0
 10
36.3996
 20
50.5948
 11
36.0406
 21
51.6996
  0
LINE
  8
0
 10
36.0406
 20
51.6996
 11
35.8229
 21
52.8407
  0
LINE
  8
0
 10
35.8229
 20
52.8407
 11
35.75
 21
54
  0
LINE
  8
0
 10
35.75
 20
54
 11
35.8229
 21
55.1593
  0
LINE
  8
0
 10
35.8229
 20
55.1593
 11
36.0406
 21
56.3004
  0
LINE
  8
0
 10
36.0406
 20
56.3004
 11
36.3996
 21
57.4052
  0
LINE
  8
0
 10
36.3996
 20
57.4052
 11
36.8941
 21
58.4562
  0
LINE
  8
0
 10
36.8941
 20
58.4562
 11
37.5166
 21
59.437
  0
LINE
  8
0
 10
37.5166
 20
59.437
 11
38.257
 21
60.332
  0
LINE
  8
0
 10
38.257
 20
60.332
 11
39.1038
 21
61.1272
  0
LINE
  8
0
 10
39.1038
 20
61.1272
 11
40.0436
 21
61.81
  0
LINE
  8
0
 10
40.0436
 20
61.81
 11
41.0615
 21
62.3696
  0
LINE
  8
0
 10
41.0615
 20
62.3696
 11
42.1416
 21
62.7973
  0
LINE
  8
0
 10
42.1416
 20
62.7973
 11
43.2667
 21
63.0862
  0
LINE
  8
0
 10
43.2667
 20
63.0862
 11
44.4192
 21
63.2317
  0
LINE
  8
0
 10
44.4192
 20
63.2317
 11
45.5808
 21
63.2317
  0
LINE
  8
0
 10
45.5808
 20
63.2317
 11
46.7333
 21
63.0862
  0
LINE
  8
0
 10
46.7333
 20
63.0862
 11
47.8584
 21
62.7973
  0
LINE
  8
0
 10
47.8584
 20
62.7973
 11
48.9384
 21
62.3696
  0
LINE
  8
0
 10
48.9384
 20
62.3696
 11
49.9564
 21
61.81
  0
LINE
  8
0
 10
49.9564
 20
61.81
 11
50.8962
 21
61.1272
  0
LINE
  8
0
 10
50.8962
 20
61.1272
 11
51.743
 21
60.332
  0
LINE
  8
0
 10
51.743
 20
60.332
 11
52.4834
 21
59.437
  0
LINE
  8
0
 10
52.4834
 20
59.437
 11
53.1058
 21
58.4562
  0
LINE
  8
0
 10
53.1058
 20
58.4562
 11
53.6004
 21
57.4052
  0
LINE
  8
0
 10
53.6004
 20
57.4052
 11
53.9594
 21
56.3004
  0
LINE
  8
0
 10
53.9594
 20
56.3004
 11
54.177
 21
55.1593
  0
LINE
  8
0
 10
54.177
 20
55.1593
 11
54.25
 21
54
  0
LINE
  8
0
 10
54.25
 20
54
 11
54.177
 21
52.8407
  0
LINE
  8
0
 10
54.177
 20
52.8407
 11
53.9594
 21
51.6996
  0
LINE
  8
0
 10
53.9594
 20
51.6996
 11
53.6004
 21
50.5948
  0
LINE
  8
0
 10
53.6004
 20
50.5948
 11
53.1058
 21
49.5438
  0
LINE
  8
0
 10
53.1058
 20
49.5438
 11
52.4834
 21
48.563
  0
LINE
  8
0
 10
52.4834
 20
48.563
 11
51.743
 21
47.6679
  0
LINE
  8
0
 10
51.743
 20
47.6679
 11
50.8962
 21
46.8727
  0
LINE
  8
0
 10
50.8962
 20
46.8727
 11
49.9564
 21
46.19
  0
LINE
  8
0
 10
49.9564
 20
46.19
 11
48.9384
 21
45.6303
  0
LINE
  8
0
 10
48.9384
 20
45.6303
 11
47.8584
 21
45.2027
  0
LINE
  8
0
 10
47.8584
 20
45.2027
 11
46.7333
 21
44.9138
  0
LINE
  8
0
 10
46.7333
 20
44.9138
 11
45.5808
 21
44.7682
  0
LINE
  8
0
 10
45.5808
 20
44.7682
 11
44.4192
 21
44.7682
  0
LINE
  8
0
 10
-45.5808
 20
44.7682
 11
-46.7333
 21
44.9138
  0
LINE
  8
0
 10
-46.7333
 20
44.9138
 11
-47.8584
 21
45.2027
  0
LINE
  8
0
 10
-47.8584
 20
45.2027
 11
-48.9384
 21
45.6303
  0
LINE
  8
0
 10
-48.9384
 20
45.6303
 11
-49.9564
 21
46.19
  0
LINE
  8
0
 10
-49.9564
 20
46.19
 11
-50.8962
 21
46.8727
  0
LINE
  8
0
 10
-50.8962
 20
46.8727
 11
-51.743
 21
47.6679
  0
LINE
  8
0
 10
-51.743
 20
47.6679
 11
-52.4834
 21
48.563
  0
LINE
  8
0
 10
-52.4834
 20
48.563
 11
-53.1058
 21
49.5438
  0
LINE
  8
0
 10
-53.1058
 20
49.5438
 11
-53.6004
 21
50.5948
  0
LINE
  8
0
 10
-53.6004
 20
50.5948
 11
-53.9594
 21
51.6996
  0
LINE
  8
0
 10
-53.9594
 20
51.6996
 11
-54.177
 21
52.8407
  0
LINE
  8
0
 10
-54.177
 20
52.8407
 11
-54.25
 21
54
  0
LINE
  8
0
 10
-54.25
 20
54
 11
-54.177
 21
55.1593
  0
LINE
  8
0
 10
-54.177
 20
55.1593
 11
-53.9594
 21
56.3004
  0
LINE
  8
0
 10
-53.9594
 20
56.3004
 11
-53.6004
 21
57.4052
  0
LINE
  8
0
 10
-53.6004
 20
57.4052
 11
-53.1058
 21
58.4562
  0
LINE
  8
0
 10
-53.1058
 20
58.4562
 11
-52.4834
 21
59.437
  0
LINE
  8
0
 10
-52.4834
 20
59.437
 11
-51.743
 21
60.332
  0
LINE
  8
0
 10
-51.743
 20
60.332
 11
-50.8962
 21
61.1272
  0
LINE
  8
0
 10
-50.8962
 20
61.1272
 11
-49.9564
 21
61.81
  0
LINE
  8
0
 10
-49.9564
 20
61.81
 11
-48.9384
 21
62.3696
  0
LINE
  8
0
 10
-48.9384
 20
62.3696
 11
-47.8584
 21
62.7973
  0
LINE
  8
0
 10
-47.8584
 20
62.7973
 11
-46.7333
 21
63.0862
  0
LINE
  8
0
 10
-46.7333
 20
63.0862
 11
-45.5808
 21
63.2317
  0
LINE
  8
0
 10
-45.5808
 20
63.2317
 11
-44.4192
 21
63.2317
  0
LINE
  8
0
 10
-44.4192
 20
63.2317
 11
-43.2667
 21
63.0862
  0
LINE
  8
0
 10
-43.2667
 20
63.0862
 11
-42.1416
 21
62.7973
  0
LINE
  8
0
 10
-42.1416
 20
62.7973
 11
-41.0615
 21
62.3696
  0
LINE
  8
0
 10
-41.0615
 20
62.3696
 11
-40.0436
 21
61.81
  0
LINE
  8
0
 10
-40.0436
 20
61.81
 11
-39.1038
 21
61.1272
  0
LINE
  8
0
 10
-39.1038
 20
61.1272
 11
-38.257
 21
60.332
  0
LINE
  8
0
 10
-38.257
 20
60.332
 11
-37.5166
 21
59.437
  0
LINE
  8
0
 10
-37.5166
 20
59.437
 11
-36.8941
 21
58.4562
  0
LINE
  8
0
 10
-36.8941
 20
58.4562
 11
-36.3996
 21
57.4052
  0
LINE
  8
0
 10
-36.3996
 20
57.4052
 11
-36.0406
 21
56.3004
  0
LINE
  8
0
 10
-36.0406
 20
56.3004
 11
-35.8229
 21
55.1593
  0
LINE
  8
0
 10
-35.8229
 20
55.1593
 11
-35.75
 21
54
  0
LINE
  8
0
 10
-35.75
 20
54
 11
-35.8229
 21
52.8407
  0
LINE
  8
0
 10
-35.8229
 20
52.8407
 11
-36.0406
 21
51.6996
  0
LINE
  8
0
 10
-36.0406
 20
51.6996
 11
-36.3996
 21
50.5948
  0
LINE
  8
0
 10
-36.3996
 20
50.5948
 11
-36.8941
 21
49.5438
  0
LINE
  8
0
 10
-36.8941
 20
49.5438
 11
-37.5166
 21
48.563
  0
LINE
  8
0
 10
-37.5166
 20
48.563
 11
-38.257
 21
47.6679
  0
LINE
  8
0
 10
-38.257
 20
47.6679
 11
-39.1038
 21
46.8727
  0
LINE
  8
0
 10
-39.1038
 20
46.8727
 11
-40.0436
 21
46.19
  0
LINE
  8
0
 10
-40.0436
 20
46.19
 11
-41.0615
 21
45.6303
  0
LINE
  8
0
 10
-41.0615
 20
45.6303
 11
-42.1416
 21
45.2027
  0
LINE
  8
0
 10
-42.1416
 20
45.2027
 11
-43.2667
 21
44.9138
  0
LINE
  8
0
 10
-43.2667
 20
44.9138
 11
-44.4192
 21
44.7682
  0
LINE
  8
0
 10
-44.4192
 20
44.7682
 11
-45.5808
 21
44.7682
  0
LINE
  8
0
 10
85.1495
 20
50.6532
 11
84.9502
 21
50.6783
  0
LINE
  8
0
 10
84.9502
 20
50.6783
 11
84.7556
 21
50.7283
  0
LINE
  8
0
 10
84.7556
 20
50.7283
 11
84.5687
 21
50.8023
  0
LINE
  8
0
 10
84.5687
 20
50.8023
 11
84.3927
 21
50.8991
  0
LINE
  8
0
 10
84.3927
 20
50.8991
 11
84.2301
 21
51.0172
  0
LINE
  8
0
 10
84.2301
 20
51.0172
 11
84.0836
 21
51.1547
  0
LINE
  8
0
 10
84.0836
 20
51.1547
 11
83.9556
 21
51.3095
  0
LINE
  8
0
 10
83.9556
 20
51.3095
 11
83.8479
 21
51.4792
  0
LINE
  8
0
 10
83.8479
 20
51.4792
 11
83.7623
 21
51.661
  0
LINE
  8
0
 10
83.7623
 20
51.661
 11
83.7003
 21
51.8521
  0
LINE
  8
0
 10
83.7003
 20
51.8521
 11
83.6626
 21
52.0495
  0
LINE
  8
0
 10
83.6626
 20
52.0495
 11
83.65
 21
52.25
  0
LINE
  8
0
 10
83.65
 20
52.25
 11
83.6626
 21
52.4505
  0
LINE
  8
0
 10
83.6626
 20
52.4505
 11
83.7003
 21
52.6479
  0
LINE
  8
0
 10
83.7003
 20
52.6479
 11
83.7623
 21
52.839
  0
LINE
  8
0
 10
83.7623
 20
52.839
 11
83.8479
 21
53.0208
  0
LINE
  8
0
 10
83.8479
 20
53.0208
 11
83.9556
 21
53.1904
  0
LINE
  8
0
 10
83.9556
 20
53.1904
 11
84.0836
 21
53.3453
  0
LINE
  8
0
 10
84.0836
 20
53.3453
 11
84.2301
 21
53.4828
  0
LINE
  8
0
 10
84.2301
 20
53.4828
 11
84.3927
 21
53.6009
  0
LINE
  8
0
 10
84.3927
 20
53.6009
 11
84.5687
 21
53.6977
  0
LINE
  8
0
 10
84.5687
 20
53.6977
 11
84.7556
 21
53.7717
  0
LINE
  8
0
 10
84.7556
 20
53.7717
 11
84.9502
 21
53.8217
  0
LINE
  8
0
 10
84.9502
 20
53.8217
 11
85.1495
 21
53.8468
  0
LINE
  8
0
 10
85.1495
 20
53.8468
 11
85.3505
 21
53.8468
  0
LINE
  8
0
 10
85.3505
 20
53.8468
 11
85.5498
 21
53.8217
  0
LINE
  8
0
 10
85.5498
 20
53.8217
 11
85.7444
 21
53.7717
  0
LINE
  8
0
 10
85.7444
 20
53.7717
 11
85.9312
 21
53.6977
  0
LINE
  8
0
 10
85.9312
 20
53.6977
 11
86.1073
 21
53.6009
  0
LINE
  8
0
 10
86.1073
 20
53.6009
 11
86.2699
 21
53.4828
  0
LINE
  8
0
 10
86.2699
 20
53.4828
 11
86.4163
 21
53.3453
  0
LINE
  8
0
 10
86.4163
 20
53.3453
 11
86.5444
 21
53.1904
  0
LINE
  8
0
 10
86.5444
 20
53.1904
 11
86.6521
 21
53.0208
  0
LINE
  8
0
 10
86.6521
 20
53.0208
 11
86.7376
 21
52.839
  0
LINE
  8
0
 10
86.7376
 20
52.839
 11
86.7997
 21
52.6479
  0
LINE
  8
0
 10
86.7997
 20
52.6479
 11
86.8374
 21
52.4505
  0
LINE
  8
0
 10
86.8374
 20
52.4505
 11
86.85
 21
52.25
  0
LINE
  8
0
 10
86.85
 20
52.25
 11
86.8374
 21
52.0495
  0
LINE
  8
0
 10
86.8374
 20
52.0495
 11
86.7997
 21
51.8521
  0
LINE
  8
0
 10
86.7997
 20
51.8521
 11
86.7376
 21
51.661
  0
LINE
  8
0
 10
86.7376
 20
51.661
 11
86.6521
 21
51.4792
  0
LINE
  8
0
 10
86.6521
 20
51.4792
 11
86.5444
 21
51.3095
  0
LINE
  8
0
 10
86.5444
 20
51.3095
 11
86.4163
 21
51.1547
  0
LINE
  8
0
 10
86.4163
 20
51.1547
 11
86.2699
 21
51.0172
  0
LINE
  8
0
 10
86.2699
 20
51.0172
 11
86.1073
 21
50.8991
  0
LINE
  8
0
 10
86.1073
 20
50.8991
 11
85.9312
 21
50.8023
  0
LINE
  8
0
 10
85.9312
 20
50.8023
 11
85.7444
 21
50.7283
  0
LINE
  8
0
 10
85.7444
 20
50.7283
 11
85.5498
 21
50.6783
  0
LINE
  8
0
 10
85.5498
 20
50.6783
 11
85.3505
 21
50.6532
  0
LINE
  8
0
 10
85.3505
 20
50.6532
 11
85.1495
 21
50.6532
  0
LINE
  8
0
 10
-64.8505
 20
50.6532
 11
-65.0498
 21
50.6783
  0
LINE
  8
0
 10
-65.0498
 20
50.6783
 11
-65.2444
 21
50.7283
  0
LINE
  8
0
 10
-65.2444
 20
50.7283
 11
-65.4312
 21
50.8023
  0
LINE
  8
0
 10
-65.4312
 20
50.8023
 11
-65.6073
 21
50.8991
  0
LINE
  8
0
 10
-65.6073
 20
50.8991
 11
-65.7699
 21
51.0172
  0
LINE
  8
0
 10
-65.7699
 20
51.0172
 11
-65.9163
 21
51.1547
  0
LINE
  8
0
 10
-65.9163
 20
51.1547
 11
-66.0444
 21
51.3095
  0
LINE
  8
0
 10
-66.0444
 20
51.3095
 11
-66.1521
 21
51.4792
  0
LINE
  8
0
 10
-66.1521
 20
51.4792
 11
-66.2376
 21
51.661
  0
LINE
  8
0
 10
-66.2376
 20
51.661
 11
-66.2997
 21
51.8521
  0
LINE
  8
0
 10
-66.2997
 20
51.8521
 11
-66.3374
 21
52.0495
  0
LINE
  8
0
 10
-66.3374
 20
52.0495
 11
-66.35
 21
52.25
  0
LINE
  8
0
 10
-66.35
 20
52.25
 11
-66.3374
 21
52.4505
  0
LINE
  8
0
 10
-66.3374
 20
52.4505
 11
-66.2997
 21
52.6479
  0
LINE
  8
0
 10
-66.2997
 20
52.6479
 11
-66.2376
 21
52.839
  0
LINE
  8
0
 10
-66.2376
 20
52.839
 11
-66.1521
 21
53.0208
  0
LINE
  8
0
 10
-66.1521
 20
53.0208
 11
-66.0444
 21
53.1904
  0
LINE
  8
0
 10
-66.0444
 20
53.1904
 11
-65.9163
 21
53.3453
  0
LINE
  8
0
 10
-65.9163
 20
53.3453
 11
-65.7699
 21
53.4828
  0
LINE
  8
0
 10
-65.7699
 20
53.4828
 11
-65.6073
 21
53.6009
  0
LINE
  8
0
 10
-65.6073
 20
53.6009
 11
-65.4312
 21
53.6977
  0
LINE
  8
0
 10
-65.4312
 20
53.6977
 11
-65.2444
 21
53.7717
  0
LINE
  8
0
 10
-65.2444
 20
53.7717
 11
-65.0498
 21
53.8217
  0
LINE
  8
0
 10
-65.0498
 20
53.8217
 11
-64.8505
 21
53.8468
  0
LINE
  8
0
 10
-64.8505
 20
53.8468
 11
-64.6495
 21
53.8468
  0
LINE
  8
0
 10
-64.6495
 20
53.8468
 11
-64.4502
 21
53.8217
  0
LINE
  8
0
 10
-64.4502
 20
53.8217
 11
-64.2556
 21
53.7717
  0
LINE
  8
0
 10
-64.2556
 20
53.7717
 11
-64.0687
 21
53.6977
  0
LINE
  8
0
 10
-64.0687
 20
53.6977
 11
-63.8927
 21
53.6009
  0
LINE
  8
0
 10
-63.8927
 20
53.6009
 11
-63.7301
 21
53.4828
  0
LINE
  8
0
 10
-63.7301
 20
53.4828
 11
-63.5836
 21
53.3453
  0
LINE
  8
0
 10
-63.5836
 20
53.3453
 11
-63.4556
 21
53.1904
  0
LINE
  8
0
 10
-63.4556
 20
53.1904
 11
-63.3479
 21
53.0208
  0
LINE
  8
0
 10
-63.3479
 20
53.0208
 11
-63.2623
 21
52.839
  0
LINE
  8
0
 10
-63.2623
 20
52.839
 11
-63.2003
 21
52.6479
  0
LINE
  8
0
 10
-63.2003
 20
52.6479
 11
-63.1626
 21
52.4505
  0
LINE
  8
0
 10
-63.1626
 20
52.4505
 11
-63.15
 21
52.25
  0
LINE
  8
0
 10
-63.15
 20
52.25
 11
-63.1626
 21
52.0495
  0
LINE
  8
0
 10
-63.1626
 20
52.0495
 11
-63.2003
 21
51.8521
  0
LINE
  8
0
 10
-63.2003
 20
51.8521
 11
-63.2623
 21
51.661
  0
LINE
  8
0
 10
-63.2623
 20
51.661
 11
-63.3479
 21
51.4792
  0
LINE
  8
0
 10
-63.3479
 20
51.4792
 11
-63.4556
 21
51.3095
  0
LINE
  8
0
 10
-63.4556
 20
51.3095
 11
-63.5836
 21
51.1547
  0
LINE
  8
0
 10
-63.5836
 20
51.1547
 11
-63.7301
 21
51.0172
  0
LINE
  8
0
 10
-63.7301
 20
51.0172
 11
-63.8927
 21
50.8991
  0
LINE
  8
0
 10
-63.8927
 20
50.8991
 11
-64.0687
 21
50.8023
  0
LINE
  8
0
 10
-64.0687
 20
50.8023
 11
-64.2556
 21
50.7283
  0
LINE
  8
0
 10
-64.2556
 20
50.7283
 11
-64.4502
 21
50.6783
  0
LINE
  8
0
 10
-64.4502
 20
50.6783
 11
-64.6495
 21
50.6532
  0
LINE
  8
0
 10
-64.6495
 20
50.6532
 11
-64.8505
 21
50.6532
  0
LINE
  8
0
 10
-25.3505
 20
48.1532
 11
-25.5498
 21
48.1783
  0
LINE
  8
0
 10
-25.5498
 20
48.1783
 11
-25.7444
 21
48.2283
  0
LINE
  8
0
 10
-25.7444
 20
48.2283
 11
-25.9312
 21
48.3023
  0
LINE
  8
0
 10
-25.9312
 20
48.3023
 11
-26.1073
 21
48.3991
  0
LINE
  8
0
 10
-26.1073
 20
48.3991
 11
-26.2699
 21
48.5172
  0
LINE
  8
0
 10
-26.2699
 20
48.5172
 11
-26.4163
 21
48.6547
  0
LINE
  8
0
 10
-26.4163
 20
48.6547
 11
-26.5444
 21
48.8095
  0
LINE
  8
0
 10
-26.5444
 20
48.8095
 11
-26.6521
 21
48.9792
  0
LINE
  8
0
 10
-26.6521
 20
48.9792
 11
-26.7376
 21
49.161
  0
LINE
  8
0
 10
-26.7376
 20
49.161
 11
-26.7997
 21
49.3521
  0
LINE
  8
0
 10
-26.7997
 20
49.3521
 11
-26.8374
 21
49.5495
  0
LINE
  8
0
 10
-26.8374
 20
49.5495
 11
-26.85
 21
49.75
  0
LINE
  8
0
 10
-26.85
 20
49.75
 11
-26.8374
 21
49.9505
  0
LINE
  8
0
 10
-26.8374
 20
49.9505
 11
-26.7997
 21
50.1479
  0
LINE
  8
0
 10
-26.7997
 20
50.1479
 11
-26.7376
 21
50.339
  0
LINE
  8
0
 10
-26.7376
 20
50.339
 11
-26.6521
 21
50.5208
  0
LINE
  8
0
 10
-26.6521
 20
50.5208
 11
-26.5444
 21
50.6904
  0
LINE
  8
0
 10
-26.5444
 20
50.6904
 11
-26.4163
 21
50.8453
  0
LINE
  8
0
 10
-26.4163
 20
50.8453
 11
-26.2699
 21
50.9828
  0
LINE
  8
0
 10
-26.2699
 20
50.9828
 11
-26.1073
 21
51.1009
  0
LINE
  8
0
 10
-26.1073
 20
51.1009
 11
-25.9312
 21
51.1977
  0
LINE
  8
0
 10
-25.9312
 20
51.1977
 11
-25.7444
 21
51.2717
  0
LINE
  8
0
 10
-25.7444
 20
51.2717
 11
-25.5498
 21
51.3217
  0
LINE
  8
0
 10
-25.5498
 20
51.3217
 11
-25.3505
 21
51.3468
  0
LINE
  8
0
 10
-25.3505
 20
51.3468
 11
-25.1495
 21
51.3468
  0
LINE
  8
0
 10
-25.1495
 20
51.3468
 11
-24.9502
 21
51.3217
  0
LINE
  8
0
 10
-24.9502
 20
51.3217
 11
-24.7556
 21
51.2717
  0
LINE
  8
0
 10
-24.7556
 20
51.2717
 11
-24.5687
 21
51.1977
  0
LINE
  8
0
 10
-24.5687
 20
51.1977
 11
-24.3927
 21
51.1009
  0
LINE
  8
0
 10
-24.3927
 20
51.1009
 11
-24.2301
 21
50.9828
  0
LINE
  8
0
 10
-24.2301
 20
50.9828
 11
-24.0836
 21
50.8453
  0
LINE
  8
0
 10
-24.0836
 20
50.8453
 11
-23.9556
 21
50.6904
  0
LINE
  8
0
 10
-23.9556
 20
50.6904
 11
-23.8479
 21
50.5208
  0
LINE
  8
0
 10
-23.8479
 20
50.5208
 11
-23.7623
 21
50.339
  0
LINE
  8
0
 10
-23.7623
 20
50.339
 11
-23.7003
 21
50.1479
  0
LINE
  8
0
 10
-23.7003
 20
50.1479
 11
-23.6626
 21
49.9505
  0
LINE
  8
0
 10
-23.6626
 20
49.9505
 11
-23.65
 21
49.75
  0
LINE
  8
0
 10
-23.65
 20
49.75
 11
-23.6626
 21
49.5495
  0
LINE
  8
0
 10
-23.6626
 20
49.5495
 11
-23.7003
 21
49.3521
  0
LINE
  8
0
 10
-23.7003
 20
49.3521
 11
-23.7623
 21
49.161
  0
LINE
  8
0
 10
-23.7623
 20
49.161
 11
-23.8479
 21
48.9792
  0
LINE
  8
0
 10
-23.8479
 20
48.9792
 11
-23.9556
 21
48.8095
  0
LINE
  8
0
 10
-23.9556
 20
48.8095
 11
-24.0836
 21
48.6547
  0
LINE
  8
0
 10
-24.0836
 20
48.6547
 11
-24.2301
 21
48.5172
  0
LINE
  8
0
 10
-24.2301
 20
48.5172
 11
-24.3927
 21
48.3991
  0
LINE
  8
0
 10
-24.3927
 20
48.3991
 11
-24.5687
 21
48.3023
  0
LINE
  8
0
 10
-24.5687
 20
48.3023
 11
-24.7556
 21
48.2283
  0
LINE
  8
0
 10
-24.7556
 20
48.2283
 11
-24.9502
 21
48.1783
  0
LINE
  8
0
 10
-24.9502
 20
48.1783
 11
-25.1495
 21
48.1532
  0
LINE
  8
0
 10
-25.1495
 20
48.1532
 11
-25.3505
 21
48.1532
  0
LINE
  8
0
 10
4.64952
 20
48.1532
 11
4.45018
 21
48.1783
  0
LINE
  8
0
 10
4.45018
 20
48.1783
 11
4.25557
 21
48.2283
  0
LINE
  8
0
 10
4.25557
 20
48.2283
 11
4.06874
 21
48.3023
  0
LINE
  8
0
 10
4.06874
 20
48.3023
 11
3.89267
 21
48.3991
  0
LINE
  8
0
 10
3.89267
 20
48.3991
 11
3.73012
 21
48.5172
  0
LINE
  8
0
 10
3.73012
 20
48.5172
 11
3.58365
 21
48.6547
  0
LINE
  8
0
 10
3.58365
 20
48.6547
 11
3.45557
 21
48.8095
  0
LINE
  8
0
 10
3.45557
 20
48.8095
 11
3.3479
 21
48.9792
  0
LINE
  8
0
 10
3.3479
 20
48.9792
 11
3.26234
 21
49.161
  0
LINE
  8
0
 10
3.26234
 20
49.161
 11
3.20026
 21
49.3521
  0
LINE
  8
0
 10
3.20026
 20
49.3521
 11
3.16261
 21
49.5495
  0
LINE
  8
0
 10
3.16261
 20
49.5495
 11
3.14999
 21
49.75
  0
LINE
  8
0
 10
3.14999
 20
49.75
 11
3.16261
 21
49.9505
  0
LINE
  8
0
 10
3.16261
 20
49.9505
 11
3.20026
 21
50.1479
  0
LINE
  8
0
 10
3.20026
 20
50.1479
 11
3.26234
 21
50.339
  0
LINE
  8
0
 10
3.26234
 20
50.339
 11
3.3479
 21
50.5208
  0
LINE
  8
0
 10
3.3479
 20
50.5208
 11
3.45557
 21
50.6904
  0
LINE
  8
0
 10
3.45557
 20
50.6904
 11
3.58365
 21
50.8453
  0
LINE
  8
0
 10
3.58365
 20
50.8453
 11
3.73012
 21
50.9828
  0
LINE
  8
0
 10
3.73012
 20
50.9828
 11
3.89267
 21
51.1009
  0
LINE
  8
0
 10
3.89267
 20
51.1009
 11
4.06874
 21
51.1977
  0
LINE
  8
0
 10
4.06874
 20
51.1977
 11
4.25557
 21
51.2717
  0
LINE
  8
0
 10
4.25557
 20
51.2717
 11
4.45018
 21
51.3217
  0
LINE
  8
0
 10
4.45018
 20
51.3217
 11
4.64952
 21
51.3468
  0
LINE
  8
0
 10
4.64952
 20
51.3468
 11
4.85046
 21
51.3468
  0
LINE
  8
0
 10
4.85046
 20
51.3468
 11
5.0498
 21
51.3217
  0
LINE
  8
0
 10
5.0498
 20
51.3217
 11
5.24442
 21
51.2717
  0
LINE
  8
0
 10
5.24442
 20
51.2717
 11
5.43124
 21
51.1977
  0
LINE
  8
0
 10
5.43124
 20
51.1977
 11
5.60732
 21
51.1009
  0
LINE
  8
0
 10
5.60732
 20
51.1009
 11
5.76987
 21
50.9828
  0
LINE
  8
0
 10
5.76987
 20
50.9828
 11
5.91634
 21
50.8453
  0
LINE
  8
0
 10
5.91634
 20
50.8453
 11
6.04442
 21
50.6904
  0
LINE
  8
0
 10
6.04442
 20
50.6904
 11
6.15208
 21
50.5208
  0
LINE
  8
0
 10
6.15208
 20
50.5208
 11
6.23764
 21
50.339
  0
LINE
  8
0
 10
6.23764
 20
50.339
 11
6.29973
 21
50.1479
  0
LINE
  8
0
 10
6.29973
 20
50.1479
 11
6.33737
 21
49.9505
  0
LINE
  8
0
 10
6.33737
 20
49.9505
 11
6.34999
 21
49.75
  0
LINE
  8
0
 10
6.34999
 20
49.75
 11
6.33737
 21
49.5495
  0
LINE
  8
0
 10
6.33737
 20
49.5495
 11
6.29973
 21
49.3521
  0
LINE
  8
0
 10
6.29973
 20
49.3521
 11
6.23764
 21
49.161
  0
LINE
  8
0
 10
6.23764
 20
49.161
 11
6.15208
 21
48.9792
  0
LINE
  8
0
 10
6.15208
 20
48.9792
 11
6.04442
 21
48.8095
  0
LINE
  8
0
 10
6.04442
 20
48.8095
 11
5.91634
 21
48.6547
  0
LINE
  8
0
 10
5.91634
 20
48.6547
 11
5.76987
 21
48.5172
  0
LINE
  8
0
 10
5.76987
 20
48.5172
 11
5.60732
 21
48.3991
  0
LINE
  8
0
 10
5.60732
 20
48.3991
 11
5.43124
 21
48.3023
  0
LINE
  8
0
 10
5.43124
 20
48.3023
 11
5.24442
 21
48.2283
  0
LINE
  8
0
 10
5.24442
 20
48.2283
 11
5.0498
 21
48.1783
  0
LINE
  8
0
 10
5.0498
 20
48.1783
 11
4.85046
 21
48.1532
  0
LINE
  8
0
 10
4.85046
 20
48.1532
 11
4.64952
 21
48.1532
  0
LINE
  8
0
 10
74.4192
 20
32.7682
 11
73.2667
 21
32.9138
  0
LINE
  8
0
 10
73.2667
 20
32.9138
 11
72.1416
 21
33.2027
  0
LINE
  8
0
 10
72.1416
 20
33.2027
 11
71.0615
 21
33.6303
  0
LINE
  8
0
 10
71.0615
 20
33.6303
 11
70.0436
 21
34.19
  0
LINE
  8
0
 10
70.0436
 20
34.19
 11
69.1038
 21
34.8727
  0
LINE
  8
0
 10
69.1038
 20
34.8727
 11
68.257
 21
35.6679
  0
LINE
  8
0
 10
68.257
 20
35.6679
 11
67.5166
 21
36.563
  0
LINE
  8
0
 10
67.5166
 20
36.563
 11
66.8941
 21
37.5438
  0
LINE
  8
0
 10
66.8941
 20
37.5438
 11
66.3996
 21
38.5948
  0
LINE
  8
0
 10
66.3996
 20
38.5948
 11
66.0406
 21
39.6996
  0
LINE
  8
0
 10
66.0406
 20
39.6996
 11
65.8229
 21
40.8407
  0
LINE
  8
0
 10
65.8229
 20
40.8407
 11
65.75
 21
42
  0
LINE
  8
0
 10
65.75
 20
42
 11
65.8229
 21
43.1593
  0
LINE
  8
0
 10
65.8229
 20
43.1593
 11
66.0406
 21
44.3004
  0
LINE
  8
0
 10
66.0406
 20
44.3004
 11
66.3996
 21
45.4052
  0
LINE
  8
0
 10
66.3996
 20
45.4052
 11
66.8941
 21
46.4562
  0
LINE
  8
0
 10
66.8941
 20
46.4562
 11
67.5166
 21
47.437
  0
LINE
  8
0
 10
67.5166
 20
47.437
 11
68.257
 21
48.332
  0
LINE
  8
0
 10
68.257
 20
48.332
 11
69.1038
 21
49.1272
  0
LINE
  8
0
 10
69.1038
 20
49.1272
 11
70.0436
 21
49.81
  0
LINE
  8
0
 10
70.0436
 20
49.81
 11
71.0615
 21
50.3696
  0
LINE
  8
0
 10
71.0615
 20
50.3696
 11
72.1416
 21
50.7973
  0
LINE
  8
0
 10
72.1416
 20
50.7973
 11
73.2667
 21
51.0862
  0
LINE
  8
0
 10
73.2667
 20
51.0862
 11
74.4192
 21
51.2317
  0
LINE
  8
0
 10
74.4192
 20
51.2317
 11
75.5808
 21
51.2317
  0
LINE
  8
0
 10
75.5808
 20
51.2317
 11
76.7333
 21
51.0862
  0
LINE
  8
0
 10
76.7333
 20
51.0862
 11
77.8584
 21
50.7973
  0
LINE
  8
0
 10
77.8584
 20
50.7973
 11
78.9384
 21
50.3696
  0
LINE
  8
0
 10
78.9384
 20
50.3696
 11
79.9564
 21
49.81
  0
LINE
  8
0
 10
79.9564
 20
49.81
 11
80.8962
 21
49.1272
  0
LINE
  8
0
 10
80.8962
 20
49.1272
 11
81.743
 21
48.332
  0
LINE
  8
0
 10
81.743
 20
48.332
 11
82.4834
 21
47.437
  0
LINE
  8
0
 10
82.4834
 20
47.437
 11
83.1058
 21
46.4562
  0
LINE
  8
0
 10
83.1058
 20
46.4562
 11
83.6004
 21
45.4052
  0
LINE
  8
0
 10
83.6004
 20
45.4052
 11
83.9594
 21
44.3004
  0
LINE
  8
0
 10
83.9594
 20
44.3004
 11
84.177
 21
43.1593
  0
LINE
  8
0
 10
84.177
 20
43.1593
 11
84.25
 21
42
  0
LINE
  8
0
 10
84.25
 20
42
 11
84.177
 21
40.8407
  0
LINE
  8
0
 10
84.177
 20
40.8407
 11
83.9594
 21
39.6996
  0
LINE
  8
0
 10
83.9594
 20
39.6996
 11
83.6004
 21
38.5948
  0
LINE
  8
0
 10
83.6004
 20
38.5948
 11
83.1058
 21
37.5438
  0
LINE
  8
0
 10
83.1058
 20
37.5438
 11
82.4834
 21
36.563
  0
LINE
  8
0
 10
82.4834
 20
36.563
 11
81.743
 21
35.6679
  0
LINE
  8
0
 10
81.743
 20
35.6679
 11
80.8962
 21
34.8727
  0
LINE
  8
0
 10
80.8962
 20
34.8727
 11
79.9564
 21
34.19
  0
LINE
  8
0
 10
79.9564
 20
34.19
 11
78.9384
 21
33.6303
  0
LINE
  8
0
 10
78.9384
 20
33.6303
 11
77.8584
 21
33.2027
  0
LINE
  8
0
 10
77.8584
 20
33.2027
 11
76.7333
 21
32.9138
  0
LINE
  8
0
 10
76.7333
 20
32.9138
 11
75.5808
 21
32.7682
  0
LINE
  8
0
 10
75.5808
 20
32.7682
 11
74.4192
 21
32.7682
  0
LINE
  8
0
 10
-75.5808
 20
32.7682
 11
-76.7333
 21
32.9138
  0
LINE
  8
0
 10
-76.7333
 20
32.9138
 11
-77.8584
 21
33.2027
  0
LINE
  8
0
 10
-77.8584
 20
33.2027
 11
-78.9384
 21
33.6303
  0
LINE
  8
0
 10
-78.9384
 20
33.6303
 11
-79.9564
 21
34.19
  0
LINE
  8
0
 10
-79.9564
 20
34.19
 11
-80.8962
 21
34.8727
  0
LINE
  8
0
 10
-80.8962
 20
34.8727
 11
-81.743
 21
35.6679
  0
LINE
  8
0
 10
-81.743
 20
35.6679
 11
-82.4834
 21
36.563
  0
LINE
  8
0
 10
-82.4834
 20
36.563
 11
-83.1058
 21
37.5438
  0
LINE
  8
0
 10
-83.1058
 20
37.5438
 11
-83.6004
 21
38.5948
  0
LINE
  8
0
 10
-83.6004
 20
38.5948
 11
-83.9594
 21
39.6996
  0
LINE
  8
0
 10
-83.9594
 20
39.6996
 11
-84.177
 21
40.8407
  0
LINE
  8
0
 10
-84.177
 20
40.8407
 11
-84.25
 21
42
  0
LINE
  8
0
 10
-84.25
 20
42
 11
-84.177
 21
43.1593
  0
LINE
  8
0
 10
-84.177
 20
43.1593
 11
-83.9594
 21
44.3004
  0
LINE
  8
0
 10
-83.9594
 20
44.3004
 11
-83.6004
 21
45.4052
  0
LINE
  8
0
 10
-83.6004
 20
45.4052
 11
-83.1058
 21
46.4562
  0
LINE
  8
0
 10
-83.1058
 20
46.4562
 11
-82.4834
 21
47.437
  0
LINE
  8
0
 10
-82.4834
 20
47.437
 11
-81.743
 21
48.332
  0
LINE
  8
0
 10
-81.743
 20
48.332
 11
-80.8962
 21
49.1272
  0
LINE
  8
0
 10
-80.8962
 20
49.1272
 11
-79.9564
 21
49.81
  0
LINE
  8
0
 10
-79.9564
 20
49.81
 11
-78.9384
 21
50.3696
  0
LINE
  8
0
 10
-78.9384
 20
50.3696
 11
-77.8584
 21
50.7973
  0
LINE
  8
0
 10
-77.8584
 20
50.7973
 11
-76.7333
 21
51.0862
  0
LINE
  8
0
 10
-76.7333
 20
51.0862
 11
-75.5808
 21
51.2317
  0
LINE
  8
0
 10
-75.5808
 20
51.2317
 11
-74.4192
 21
51.2317
  0
LINE
  8
0
 10
-74.4192
 20
51.2317
 11
-73.2667
 21
51.0862
  0
LINE
  8
0
 10
-73.2667
 20
51.0862
 11
-72.1416
 21
50.7973
  0
LINE
  8
0
 10
-72.1416
 20
50.7973
 11
-71.0615
 21
50.3696
  0
LINE
  8
0
 10
-71.0615
 20
50.3696
 11
-70.0436
 21
49.81
  0
LINE
  8
0
 10
-70.0436
 20
49.81
 11
-69.1038
 21
49.1272
  0
LINE
  8
0
 10
-69.1038
 20
49.1272
 11
-68.257
 21
48.332
  0
LINE
  8
0
 10
-68.257
 20
48.332
 11
-67.5166
 21
47.437
  0
LINE
  8
0
 10
-67.5166
 20
47.437
 11
-66.8941
 21
46.4562
  0
LINE
  8
0
 10
-66.8941
 20
46.4562
 11
-66.3996
 21
45.4052
  0
LINE
  8
0
 10
-66.3996
 20
45.4052
 11
-66.0406
 21
44.3004
  0
LINE
  8
0
 10
-66.0406
 20
44.3004
 11
-65.8229
 21
43.1593
  0
LINE
  8
0
 10
-65.8229
 20
43.1593
 11
-65.75
 21
42
  0
LINE
  8
0
 10
-65.75
 20
42
 11
-65.8229
 21
40.8407
  0
LINE
  8
0
 10
-65.8229
 20
40.8407
 11
-66.0406
 21
39.6996
  0
LINE
  8
0
 10
-66.0406
 20
39.6996
 11
-66.3996
 21
38.5948
  0
LINE
  8
0
 10
-66.3996
 20
38.5948
 11
-66.8941
 21
37.5438
  0
LINE
  8
0
 10
-66.8941
 20
37.5438
 11
-67.5166
 21
36.563
  0
LINE
  8
0
 10
-67.5166
 20
36.563
 11
-68.257
 21
35.6679
  0
LINE
  8
0
 10
-68.257
 20
35.6679
 11
-69.1038
 21
34.8727
  0
LINE
  8
0
 10
-69.1038
 20
34.8727
 11
-70.0436
 21
34.19
  0
LINE
  8
0
 10
-70.0436
 20
34.19
 11
-71.0615
 21
33.6303
  0
LINE
  8
0
 10
-71.0615
 20
33.6303
 11
-72.1416
 21
33.2027
  0
LINE
  8
0
 10
-72.1416
 20
33.2027
 11
-73.2667
 21
32.9138
  0
LINE
  8
0
 10
-73.2667
 20
32.9138
 11
-74.4192
 21
32.7682
  0
LINE
  8
0
 10
-74.4192
 20
32.7682
 11
-75.5808
 21
32.7682
  0
LINE
  8
0
 10
-55.3505
 20
42.1532
 11
-55.5498
 21
42.1783
  0
LINE
  8
0
 10
-55.5498
 20
42.1783
 11
-55.7444
 21
42.2283
  0
LINE
  8
0
 10
-55.7444
 20
42.2283
 11
-55.9312
 21
42.3023
  0
LINE
  8
0
 10
-55.9312
 20
42.3023
 11
-56.1073
 21
42.3991
  0
LINE
  8
0
 10
-56.1073
 20
42.3991
 11
-56.2699
 21
42.5172
  0
LINE
  8
0
 10
-56.2699
 20
42.5172
 11
-56.4163
 21
42.6547
  0
LINE
  8
0
 10
-56.4163
 20
42.6547
 11
-56.5444
 21
42.8095
  0
LINE
  8
0
 10
-56.5444
 20
42.8095
 11
-56.6521
 21
42.9792
  0
LINE
  8
0
 10
-56.6521
 20
42.9792
 11
-56.7376
 21
43.161
  0
LINE
  8
0
 10
-56.7376
 20
43.161
 11
-56.7997
 21
43.3521
  0
LINE
  8
0
 10
-56.7997
 20
43.3521
 11
-56.8374
 21
43.5495
  0
LINE
  8
0
 10
-56.8374
 20
43.5495
 11
-56.85
 21
43.75
  0
LINE
  8
0
 10
-56.85
 20
43.75
 11
-56.8374
 21
43.9505
  0
LINE
  8
0
 10
-56.8374
 20
43.9505
 11
-56.7997
 21
44.1479
  0
LINE
  8
0
 10
-56.7997
 20
44.1479
 11
-56.7376
 21
44.339
  0
LINE
  8
0
 10
-56.7376
 20
44.339
 11
-56.6521
 21
44.5208
  0
LINE
  8
0
 10
-56.6521
 20
44.5208
 11
-56.5444
 21
44.6904
  0
LINE
  8
0
 10
-56.5444
 20
44.6904
 11
-56.4163
 21
44.8453
  0
LINE
  8
0
 10
-56.4163
 20
44.8453
 11
-56.2699
 21
44.9828
  0
LINE
  8
0
 10
-56.2699
 20
44.9828
 11
-56.1073
 21
45.1009
  0
LINE
  8
0
 10
-56.1073
 20
45.1009
 11
-55.9312
 21
45.1977
  0
LINE
  8
0
 10
-55.9312
 20
45.1977
 11
-55.7444
 21
45.2717
  0
LINE
  8
0
 10
-55.7444
 20
45.2717
 11
-55.5498
 21
45.3217
  0
LINE
  8
0
 10
-55.5498
 20
45.3217
 11
-55.3505
 21
45.3468
  0
LINE
  8
0
 10
-55.3505
 20
45.3468
 11
-55.1495
 21
45.3468
  0
LINE
  8
0
 10
-55.1495
 20
45.3468
 11
-54.9502
 21
45.3217
  0
LINE
  8
0
 10
-54.9502
 20
45.3217
 11
-54.7556
 21
45.2717
  0
LINE
  8
0
 10
-54.7556
 20
45.2717
 11
-54.5687
 21
45.1977
  0
LINE
  8
0
 10
-54.5687
 20
45.1977
 11
-54.3927
 21
45.1009
  0
LINE
  8
0
 10
-54.3927
 20
45.1009
 11
-54.2301
 21
44.9828
  0
LINE
  8
0
 10
-54.2301
 20
44.9828
 11
-54.0836
 21
44.8453
  0
LINE
  8
0
 10
-54.0836
 20
44.8453
 11
-53.9556
 21
44.6904
  0
LINE
  8
0
 10
-53.9556
 20
44.6904
 11
-53.8479
 21
44.5208
  0
LINE
  8
0
 10
-53.8479
 20
44.5208
 11
-53.7623
 21
44.339
  0
LINE
  8
0
 10
-53.7623
 20
44.339
 11
-53.7003
 21
44.1479
  0
LINE
  8
0
 10
-53.7003
 20
44.1479
 11
-53.6626
 21
43.9505
  0
LINE
  8
0
 10
-53.6626
 20
43.9505
 11
-53.65
 21
43.75
  0
LINE
  8
0
 10
-53.65
 20
43.75
 11
-53.6626
 21
43.5495
  0
LINE
  8
0
 10
-53.6626
 20
43.5495
 11
-53.7003
 21
43.3521
  0
LINE
  8
0
 10
-53.7003
 20
43.3521
 11
-53.7623
 21
43.161
  0
LINE
  8
0
 10
-53.7623
 20
43.161
 11
-53.8479
 21
42.9792
  0
LINE
  8
0
 10
-53.8479
 20
42.9792
 11
-53.9556
 21
42.8095
  0
LINE
  8
0
 10
-53.9556
 20
42.8095
 11
-54.0836
 21
42.6547
  0
LINE
  8
0
 10
-54.0836
 20
42.6547
 11
-54.2301
 21
42.5172
  0
LINE
  8
0
 10
-54.2301
 20
42.5172
 11
-54.3927
 21
42.3991
  0
LINE
  8
0
 10
-54.3927
 20
42.3991
 11
-54.5687
 21
42.3023
  0
LINE
  8
0
 10
-54.5687
 20
42.3023
 11
-54.7556
 21
42.2283
  0
LINE
  8
0
 10
-54.7556
 20
42.2283
 11
-54.9502
 21
42.1783
  0
LINE
  8
0
 10
-54.9502
 20
42.1783
 11
-55.1495
 21
42.1532
  0
LINE
  8
0
 10
-55.1495
 20
42.1532
 11
-55.3505
 21
42.1532
  0
LINE
  8
0
 10
34.6495
 20
42.1532
 11
34.4502
 21
42.1783
  0
LINE
  8
0
 10
34.4502
 20
42.1783
 11
34.2556
 21
42.2283
  0
LINE
  8
0
 10
34.2556
 20
42.2283
 11
34.0687
 21
42.3023
  0
LINE
  8
0
 10
34.0687
 20
42.3023
 11
33.8927
 21
42.3991
  0
LINE
  8
0
 10
33.8927
 20
42.3991
 11
33.7301
 21
42.5172
  0
LINE
  8
0
 10
33.7301
 20
42.5172
 11
33.5836
 21
42.6547
  0
LINE
  8
0
 10
33.5836
 20
42.6547
 11
33.4556
 21
42.8095
  0
LINE
  8
0
 10
33.4556
 20
42.8095
 11
33.3479
 21
42.9792
  0
LINE
  8
0
 10
33.3479
 20
42.9792
 11
33.2623
 21
43.161
  0
LINE
  8
0
 10
33.2623
 20
43.161
 11
33.2003
 21
43.3521
  0
LINE
  8
0
 10
33.2003
 20
43.3521
 11
33.1626
 21
43.5495
  0
LINE
  8
0
 10
33.1626
 20
43.5495
 11
33.15
 21
43.75
  0
LINE
  8
0
 10
33.15
 20
43.75
 11
33.1626
 21
43.9505
  0
LINE
  8
0
 10
33.1626
 20
43.9505
 11
33.2003
 21
44.1479
  0
LINE
  8
0
 10
33.2003
 20
44.1479
 11
33.2623
 21
44.339
  0
LINE
  8
0
 10
33.2623
 20
44.339
 11
33.3479
 21
44.5208
  0
LINE
  8
0
 10
33.3479
 20
44.5208
 11
33.4556
 21
44.6904
  0
LINE
  8
0
 10
33.4556
 20
44.6904
 11
33.5836
 21
44.8453
  0
LINE
  8
0
 10
33.5836
 20
44.8453
 11
33.7301
 21
44.9828
  0
LINE
  8
0
 10
33.7301
 20
44.9828
 11
33.8927
 21
45.1009
  0
LINE
  8
0
 10
33.8927
 20
45.1009
 11
34.0687
 21
45.1977
  0
LINE
  8
0
 10
34.0687
 20
45.1977
 11
34.2556
 21
45.2717
  0
LINE
  8
0
 10
34.2556
 20
45.2717
 11
34.4502
 21
45.3217
  0
LINE
  8
0
 10
34.4502
 20
45.3217
 11
34.6495
 21
45.3468
  0
LINE
  8
0
 10
34.6495
 20
45.3468
 11
34.8505
 21
45.3468
  0
LINE
  8
0
 10
34.8505
 20
45.3468
 11
35.0498
 21
45.3217
  0
LINE
  8
0
 10
35.0498
 20
45.3217
 11
35.2444
 21
45.2717
  0
LINE
  8
0
 10
35.2444
 20
45.2717
 11
35.4312
 21
45.1977
  0
LINE
  8
0
 10
35.4312
 20
45.1977
 11
35.6073
 21
45.1009
  0
LINE
  8
0
 10
35.6073
 20
45.1009
 11
35.7699
 21
44.9828
  0
LINE
  8
0
 10
35.7699
 20
44.9828
 11
35.9163
 21
44.8453
  0
LINE
  8
0
 10
35.9163
 20
44.8453
 11
36.0444
 21
44.6904
  0
LINE
  8
0
 10
36.0444
 20
44.6904
 11
36.1521
 21
44.5208
  0
LINE
  8
0
 10
36.1521
 20
44.5208
 11
36.2376
 21
44.339
  0
LINE
  8
0
 10
36.2376
 20
44.339
 11
36.2997
 21
44.1479
  0
LINE
  8
0
 10
36.2997
 20
44.1479
 11
36.3374
 21
43.9505
  0
LINE
  8
0
 10
36.3374
 20
43.9505
 11
36.35
 21
43.75
  0
LINE
  8
0
 10
36.35
 20
43.75
 11
36.3374
 21
43.5495
  0
LINE
  8
0
 10
36.3374
 20
43.5495
 11
36.2997
 21
43.3521
  0
LINE
  8
0
 10
36.2997
 20
43.3521
 11
36.2376
 21
43.161
  0
LINE
  8
0
 10
36.2376
 20
43.161
 11
36.1521
 21
42.9792
  0
LINE
  8
0
 10
36.1521
 20
42.9792
 11
36.0444
 21
42.8095
  0
LINE
  8
0
 10
36.0444
 20
42.8095
 11
35.9163
 21
42.6547
  0
LINE
  8
0
 10
35.9163
 20
42.6547
 11
35.7699
 21
42.5172
  0
LINE
  8
0
 10
35.7699
 20
42.5172
 11
35.6073
 21
42.3991
  0
LINE
  8
0
 10
35.6073
 20
42.3991
 11
35.4312
 21
42.3023
  0
LINE
  8
0
 10
35.4312
 20
42.3023
 11
35.2444
 21
42.2283
  0
LINE
  8
0
 10
35.2444
 20
42.2283
 11
35.0498
 21
42.1783
  0
LINE
  8
0
 10
35.0498
 20
42.1783
 11
34.8505
 21
42.1532
  0
LINE
  8
0
 10
34.8505
 20
42.1532
 11
34.6495
 21
42.1532
  0
LINE
  8
0
 10
25.1495
 20
38.6532
 11
24.9502
 21
38.6783
  0
LINE
  8
0
 10
24.9502
 20
38.6783
 11
24.7556
 21
38.7283
  0
LINE
  8
0
 10
24.7556
 20
38.7283
 11
24.5687
 21
38.8023
  0
LINE
  8
0
 10
24.5687
 20
38.8023
 11
24.3927
 21
38.8991
  0
LINE
  8
0
 10
24.3927
 20
38.8991
 11
24.2301
 21
39.0172
  0
LINE
  8
0
 10
24.2301
 20
39.0172
 11
24.0836
 21
39.1547
  0
LINE
  8
0
 10
24.0836
 20
39.1547
 11
23.9556
 21
39.3095
  0
LINE
  8
0
 10
23.9556
 20
39.3095
 11
23.8479
 21
39.4792
  0
LINE
  8
0
 10
23.8479
 20
39.4792
 11
23.7623
 21
39.661
  0
LINE
  8
0
 10
23.7623
 20
39.661
 11
23.7003
 21
39.8521
  0
LINE
  8
0
 10
23.7003
 20
39.8521
 11
23.6626
 21
40.0495
  0
LINE
  8
0
 10
23.6626
 20
40.0495
 11
23.65
 21
40.25
  0
LINE
  8
0
 10
23.65
 20
40.25
 11
23.6626
 21
40.4505
  0
LINE
  8
0
 10
23.6626
 20
40.4505
 11
23.7003
 21
40.6479
  0
LINE
  8
0
 10
23.7003
 20
40.6479
 11
23.7623
 21
40.839
  0
LINE
  8
0
 10
23.7623
 20
40.839
 11
23.8479
 21
41.0208
  0
LINE
  8
0
 10
23.8479
 20
41.0208
 11
23.9556
 21
41.1904
  0
LINE
  8
0
 10
23.9556
 20
41.1904
 11
24.0836
 21
41.3453
  0
LINE
  8
0
 10
24.0836
 20
41.3453
 11
24.2301
 21
41.4828
  0
LINE
  8
0
 10
24.2301
 20
41.4828
 11
24.3927
 21
41.6009
  0
LINE
  8
0
 10
24.3927
 20
41.6009
 11
24.5687
 21
41.6977
  0
LINE
  8
0
 10
24.5687
 20
41.6977
 11
24.7556
 21
41.7717
  0
LINE
  8
0
 10
24.7556
 20
41.7717
 11
24.9502
 21
41.8217
  0
LINE
  8
0
 10
24.9502
 20
41.8217
 11
25.1495
 21
41.8468
  0
LINE
  8
0
 10
25.1495
 20
41.8468
 11
25.3505
 21
41.8468
  0
LINE
  8
0
 10
25.3505
 20
41.8468
 11
25.5498
 21
41.8217
  0
LINE
  8
0
 10
25.5498
 20
41.8217
 11
25.7444
 21
41.7717
  0
LINE
  8
0
 10
25.7444
 20
41.7717
 11
25.9312
 21
41.6977
  0
LINE
  8
0
 10
25.9312
 20
41.6977
 11
26.1073
 21
41.6009
  0
LINE
  8
0
 10
26.1073
 20
41.6009
 11
26.2699
 21
41.4828
  0
LINE
  8
0
 10
26.2699
 20
41.4828
 11
26.4163
 21
41.3453
  0
LINE
  8
0
 10
26.4163
 20
41.3453
 11
26.5444
 21
41.1904
  0
LINE
  8
0
 10
26.5444
 20
41.1904
 11
26.6521
 21
41.0208
  0
LINE
  8
0
 10
26.6521
 20
41.0208
 11
26.7376
 21
40.839
  0
LINE
  8
0
 10
26.7376
 20
40.839
 11
26.7997
 21
40.6479
  0
LINE
  8
0
 10
26.7997
 20
40.6479
 11
26.8374
 21
40.4505
  0
LINE
  8
0
 10
26.8374
 20
40.4505
 11
26.85
 21
40.25
  0
LINE
  8
0
 10
26.85
 20
40.25
 11
26.8374
 21
40.0495
  0
LINE
  8
0
 10
26.8374
 20
40.0495
 11
26.7997
 21
39.8521
  0
LINE
  8
0
 10
26.7997
 20
39.8521
 11
26.7376
 21
39.661
  0
LINE
  8
0
 10
26.7376
 20
39.661
 11
26.6521
 21
39.4792
  0
LINE
  8
0
 10
26.6521
 20
39.4792
 11
26.5444
 21
39.3095
  0
LINE
  8
0
 10
26.5444
 20
39.3095
 11
26.4163
 21
39.1547
  0
LINE
  8
0
 10
26.4163
 20
39.1547
 11
26.2699
 21
39.0172
  0
LINE
  8
0
 10
26.2699
 20
39.0172
 11
26.1073
 21
38.8991
  0
LINE
  8
0
 10
26.1073
 20
38.8991
 11
25.9312
 21
38.8023
  0
LINE
  8
0
 10
25.9312
 20
38.8023
 11
25.7444
 21
38.7283
  0
LINE
  8
0
 10
25.7444
 20
38.7283
 11
25.5498
 21
38.6783
  0
LINE
  8
0
 10
25.5498
 20
38.6783
 11
25.3505
 21
38.6532
  0
LINE
  8
0
 10
25.3505
 20
38.6532
 11
25.1495
 21
38.6532
  0
LINE
  8
0
 10
-4.85046
 20
38.6532
 11
-5.0498
 21
38.6783
  0
LINE
  8
0
 10
-5.0498
 20
38.6783
 11
-5.24442
 21
38.7283
  0
LINE
  8
0
 10
-5.24442
 20
38.7283
 11
-5.43124
 21
38.8023
  0
LINE
  8
0
 10
-5.43124
 20
38.8023
 11
-5.60732
 21
38.8991
  0
LINE
  8
0
 10
-5.60732
 20
38.8991
 11
-5.76987
 21
39.0172
  0
LINE
  8
0
 10
-5.76987
 20
39.0172
 11
-5.91634
 21
39.1547
  0
LINE
  8
0
 10
-5.91634
 20
39.1547
 11
-6.04442
 21
39.3095
  0
LINE
  8
0
 10
-6.04442
 20
39.3095
 11
-6.15208
 21
39.4792
  0
LINE
  8
0
 10
-6.15208
 20
39.4792
 11
-6.23764
 21
39.661
  0
LINE
  8
0
 10
-6.23764
 20
39.661
 11
-6.29973
 21
39.8521
  0
LINE
  8
0
 10
-6.29973
 20
39.8521
 11
-6.33737
 21
40.0495
  0
LINE
  8
0
 10
-6.33737
 20
40.0495
 11
-6.34999
 21
40.25
  0
LINE
  8
0
 10
-6.34999
 20
40.25
 11
-6.33737
 21
40.4505
  0
LINE
  8
0
 10
-6.33737
 20
40.4505
 11
-6.29973
 21
40.6479
  0
LINE
  8
0
 10
-6.29973
 20
40.6479
 11
-6.23764
 21
40.839
  0
LINE
  8
0
 10
-6.23764
 20
40.839
 11
-6.15208
 21
41.0208
  0
LINE
  8
0
 10
-6.15208
 20
41.0208
 11
-6.04442
 21
41.1904
  0
LINE
  8
0
 10
-6.04442
 20
41.1904
 11
-5.91634
 21
41.3453
  0
LINE
  8
0
 10
-5.91634
 20
41.3453
 11
-5.76987
 21
41.4828
  0
LINE
  8
0
 10
-5.76987
 20
41.4828
 11
-5.60732
 21
41.6009
  0
LINE
  8
0
 10
-5.60732
 20
41.6009
 11
-5.43124
 21
41.6977
  0
LINE
  8
0
 10
-5.43124
 20
41.6977
 11
-5.24442
 21
41.7717
  0
LINE
  8
0
 10
-5.24442
 20
41.7717
 11
-5.0498
 21
41.8217
  0
LINE
  8
0
 10
-5.0498
 20
41.8217
 11
-4.85046
 21
41.8468
  0
LINE
  8
0
 10
-4.85046
 20
41.8468
 11
-4.64952
 21
41.8468
  0
LINE
  8
0
 10
-4.64952
 20
41.8468
 11
-4.45018
 21
41.8217
  0
LINE
  8
0
 10
-4.45018
 20
41.8217
 11
-4.25557
 21
41.7717
  0
LINE
  8
0
 10
-4.25557
 20
41.7717
 11
-4.06874
 21
41.6977
  0
LINE
  8
0
 10
-4.06874
 20
41.6977
 11
-3.89267
 21
41.6009
  0
LINE
  8
0
 10
-3.89267
 20
41.6009
 11
-3.73012
 21
41.4828
  0
LINE
  8
0
 10
-3.73012
 20
41.4828
 11
-3.58365
 21
41.3453
  0
LINE
  8
0
 10
-3.58365
 20
41.3453
 11
-3.45557
 21
41.1904
  0
LINE
  8
0
 10
-3.45557
 20
41.1904
 11
-3.3479
 21
41.0208
  0
LINE
  8
0
 10
-3.3479
 20
41.0208
 11
-3.26234
 21
40.839
  0
LINE
  8
0
 10
-3.26234
 20
40.839
 11
-3.20026
 21
40.6479
  0
LINE
  8
0
 10
-3.20026
 20
40.6479
 11
-3.16261
 21
40.4505
  0
LINE
  8
0
 10
-3.16261
 20
40.4505
 11
-3.14999
 21
40.25
  0
LINE
  8
0
 10
-3.14999
 20
40.25
 11
-3.16261
 21
40.0495
  0
LINE
  8
0
 10
-3.16261
 20
40.0495
 11
-3.20026
 21
39.8521
  0
LINE
  8
0
 10
-3.20026
 20
39.8521
 11
-3.26234
 21
39.661
  0
LINE
  8
0
 10
-3.26234
 20
39.661
 11
-3.3479
 21
39.4792
  0
LINE
  8
0
 10
-3.3479
 20
39.4792
 11
-3.45557
 21
39.3095
  0
LINE
  8
0
 10
-3.45557
 20
39.3095
 11
-3.58365
 21
39.1547
  0
LINE
  8
0
 10
-3.58365
 20
39.1547
 11
-3.73012
 21
39.0172
  0
LINE
  8
0
 10
-3.73012
 20
39.0172
 11
-3.89267
 21
38.8991
  0
LINE
  8
0
 10
-3.89267
 20
38.8991
 11
-4.06874
 21
38.8023
  0
LINE
  8
0
 10
-4.06874
 20
38.8023
 11
-4.25557
 21
38.7283
  0
LINE
  8
0
 10
-4.25557
 20
38.7283
 11
-4.45018
 21
38.6783
  0
LINE
  8
0
 10
-4.45018
 20
38.6783
 11
-4.64952
 21
38.6532
  0
LINE
  8
0
 10
-4.64952
 20
38.6532
 11
-4.85046
 21
38.6532
  0
LINE
  8
0
 10
-15.5808
 20
20.7682
 11
-16.7333
 21
20.9138
  0
LINE
  8
0
 10
-16.7333
 20
20.9138
 11
-17.8584
 21
21.2027
  0
LINE
  8
0
 10
-17.8584
 20
21.2027
 11
-18.9384
 21
21.6303
  0
LINE
  8
0
 10
-18.9384
 20
21.6303
 11
-19.9564
 21
22.19
  0
LINE
  8
0
 10
-19.9564
 20
22.19
 11
-20.8962
 21
22.8727
  0
LINE
  8
0
 10
-20.8962
 20
22.8727
 11
-21.743
 21
23.6679
  0
LINE
  8
0
 10
-21.743
 20
23.6679
 11
-22.4834
 21
24.563
  0
LINE
  8
0
 10
-22.4834
 20
24.563
 11
-23.1058
 21
25.5438
  0
LINE
  8
0
 10
-23.1058
 20
25.5438
 11
-23.6004
 21
26.5948
  0
LINE
  8
0
 10
-23.6004
 20
26.5948
 11
-23.9594
 21
27.6996
  0
LINE
  8
0
 10
-23.9594
 20
27.6996
 11
-24.177
 21
28.8407
  0
LINE
  8
0
 10
-24.177
 20
28.8407
 11
-24.25
 21
30
  0
LINE
  8
0
 10
-24.25
 20
30
 11
-24.177
 21
31.1593
  0
LINE
  8
0
 10
-24.177
 20
31.1593
 11
-23.9594
 21
32.3004
  0
LINE
  8
0
 10
-23.9594
 20
32.3004
 11
-23.6004
 21
33.4052
  0
LINE
  8
0
 10
-23.6004
 20
33.4052
 11
-23.1058
 21
34.4562
  0
LINE
  8
0
 10
-23.1058
 20
34.4562
 11
-22.4834
 21
35.437
  0
LINE
  8
0
 10
-22.4834
 20
35.437
 11
-21.743
 21
36.332
  0
LINE
  8
0
 10
-21.743
 20
36.332
 11
-20.8962
 21
37.1272
  0
LINE
  8
0
 10
-20.8962
 20
37.1272
 11
-19.9564
 21
37.81
  0
LINE
  8
0
 10
-19.9564
 20
37.81
 11
-18.9384
 21
38.3696
  0
LINE
  8
0
 10
-18.9384
 20
38.3696
 11
-17.8584
 21
38.7973
  0
LINE
  8
0
 10
-17.8584
 20
38.7973
 11
-16.7333
 21
39.0862
  0
LINE
  8
0
 10
-16.7333
 20
39.0862
 11
-15.5808
 21
39.2317
  0
LINE
  8
0
 10
-15.5808
 20
39.2317
 11
-14.4192
 21
39.2317
  0
LINE
  8
0
 10
-14.4192
 20
39.2317
 11
-13.2667
 21
39.0862
  0
LINE
  8
0
 10
-13.2667
 20
39.0862
 11
-12.1416
 21
38.7973
  0
LINE
  8
0
 10
-12.1416
 20
38.7973
 11
-11.0615
 21
38.3696
  0
LINE
  8
0
 10
-11.0615
 20
38.3696
 11
-10.0436
 21
37.81
  0
LINE
  8
0
 10
-10.0436
 20
37.81
 11
-9.10382
 21
37.1272
  0
LINE
  8
0
 10
-9.10382
 20
37.1272
 11
-8.25703
 21
36.332
  0
LINE
  8
0
 10
-8.25703
 20
36.332
 11
-7.51659
 21
35.437
  0
LINE
  8
0
 10
-7.51659
 20
35.437
 11
-6.89415
 21
34.4562
  0
LINE
  8
0
 10
-6.89415
 20
34.4562
 11
-6.39957
 21
33.4052
  0
LINE
  8
0
 10
-6.39957
 20
33.4052
 11
-6.0406
 21
32.3004
  0
LINE
  8
0
 10
-6.0406
 20
32.3004
 11
-5.82294
 21
31.1593
  0
LINE
  8
0
 10
-5.82294
 20
31.1593
 11
-5.75
 21
30
  0
LINE
  8
0
 10
-5.75
 20
30
 11
-5.82294
 21
28.8407
  0
LINE
  8
0
 10
-5.82294
 20
28.8407
 11
-6.0406
 21
27.6996
  0
LINE
  8
0
 10
-6.0406
 20
27.6996
 11
-6.39957
 21
26.5948
  0
LINE
  8
0
 10
-6.39957
 20
26.5948
 11
-6.89415
 21
25.5438
  0
LINE
  8
0
 10
-6.89415
 20
25.5438
 11
-7.51659
 21
24.563
  0
LINE
  8
0
 10
-7.51659
 20
24.563
 11
-8.25703
 21
23.6679
  0
LINE
  8
0
 10
-8.25703
 20
23.6679
 11
-9.10382
 21
22.8727
  0
LINE
  8
0
 10
-9.10382
 20
22.8727
 11
-10.0436
 21
22.19
  0
LINE
  8
0
 10
-10.0436
 20
22.19
 11
-11.0615
 21
21.6303
  0
LINE
  8
0
 10
-11.0615
 20
21.6303
 11
-12.1416
 21
21.2027
  0
LINE
  8
0
 10
-12.1416
 20
21.2027
 11
-13.2667
 21
20.9138
  0
LINE
  8
0
 10
-13.2667
 20
20.9138
 11
-14.4192
 21
20.7682
  0
LINE
  8
0
 10
-14.4192
 20
20.7682
 11
-15.5808
 21
20.7682
  0
LINE
  8
0
 10
14.4192
 20
20.7682
 11
13.2667
 21
20.9138
  0
LINE
  8
0
 10
13.2667
 20
20.9138
 11
12.1416
 21
21.2027
  0
LINE
  8
0
 10
12.1416
 20
21.2027
 11
11.0615
 21
21.6303
  0
LINE
  8
0
 10
11.0615
 20
21.6303
 11
10.0436
 21
22.19
  0
LINE
  8
0
 10
10.0436
 20
22.19
 11
9.10382
 21
22.8727
  0
LINE
  8
0
 10
9.10382
 20
22.8727
 11
8.25703
 21
23.6679
  0
LINE
  8
0
 10
8.25703
 20
23.6679
 11
7.51659
 21
24.563
  0
LINE
  8
0
 10
7.51659
 20
24.563
 11
6.89415
 21
25.5438
  0
LINE
  8
0
 10
6.89415
 20
25.5438
 11
6.39957
 21
26.5948
  0
LINE
  8
0
 10
6.39957
 20
26.5948
 11
6.0406
 21
27.6996
  0
LINE
  8
0
 10
6.0406
 20
27.6996
 11
5.82294
 21
28.8407
  0
LINE
  8
0
 10
5.82294
 20
28.8407
 11
5.75
 21
30
  0
LINE
  8
0
 10
5.75
 20
30
 11
5.82294
 21
31.1593
  0
LINE
  8
0
 10
5.82294
 20
31.1593
 11
6.0406
 21
32.3004
  0
LINE
  8
0
 10
6.0406
 20
32.3004
 11
6.39957
 21
33.4052
  0
LINE
  8
0
 10
6.39957
 20
33.4052
 11
6.89415
 21
34.4562
  0
LINE
  8
0
 10
6.89415
 20
34.4562
 11
7.51659
 21
35.437
  0
LINE
  8
0
 10
7.51659
 20
35.437
 11
8.25703
 21
36.332
  0
LINE
  8
0
 10
8.25703
 20
36.332
 11
9.10382
 21
37.1272
  0
LINE
  8
0
 10
9.10382
 20
37.1272
 11
10.0436
 21
37.81
  0
LINE
  8
0
 10
10.0436
 20
37.81
 11
11.0615
 21
38.3696
  0
LINE
  8
0
 10
11.0615
 20
38.3696
 11
12.1416
 21
38.7973
  0
LINE
  8
0
 10
12.1416
 20
38.7973
 11
13.2667
 21
39.0862
  0
LINE
  8
0
 10
13.2667
 20
39.0862
 11
14.4192
 21
39.2317
  0
LINE
  8
0
 10
14.4192
 20
39.2317
 11
15.5808
 21
39.2317
  0
LINE
  8
0
 10
15.5808
 20
39.2317
 11
16.7333
 21
39.0862
  0
LINE
  8
0
 10
16.7333
 20
39.0862
 11
17.8584
 21
38.7973
  0
LINE
  8
0
 10
17.8584
 20
38.7973
 11
18.9384
 21
38.3696
  0
LINE
  8
0
 10
18.9384
 20
38.3696
 11
19.9564
 21
37.81
  0
LINE
  8
0
 10
19.9564
 20
37.81
 11
20.8962
 21
37.1272
  0
LINE
  8
0
 10
20.8962
 20
37.1272
 11
21.743
 21
36.332
  0
LINE
  8
0
 10
21.743
 20
36.332
 11
22.4834
 21
35.437
  0
LINE
  8
0
 10
22.4834
 20
35.437
 11
23.1058
 21
34.4562
  0
LINE
  8
0
 10
23.1058
 20
34.4562
 11
23.6004
 21
33.4052
  0
LINE
  8
0
 10
23.6004
 20
33.4052
 11
23.9594
 21
32.3004
  0
LINE
  8
0
 10
23.9594
 20
32.3004
 11
24.177
 21
31.1593
  0
LINE
  8
0
 10
24.177
 20
31.1593
 11
24.25
 21
30
  0
LINE
  8
0
 10
24.25
 20
30
 11
24.177
 21
28.8407
  0
LINE
  8
0
 10
24.177
 20
28.8407
 11
23.9594
 21
27.6996
  0
LINE
  8
0
 10
23.9594
 20
27.6996
 11
23.6004
 21
26.5948
  0
LINE
  8
0
 10
23.6004
 20
26.5948
 11
23.1058
 21
25.5438
  0
LINE
  8
0
 10
23.1058
 20
25.5438
 11
22.4834
 21
24.563
  0
LINE
  8
0
 10
22.4834
 20
24.563
 11
21.743
 21
23.6679
  0
LINE
  8
0
 10
21.743
 20
23.6679
 11
20.8962
 21
22.8727
  0
LINE
  8
0
 10
20.8962
 20
22.8727
 11
19.9564
 21
22.19
  0
LINE
  8
0
 10
19.9564
 20
22.19
 11
18.9384
 21
21.6303
  0
LINE
  8
0
 10
18.9384
 20
21.6303
 11
17.8584
 21
21.2027
  0
LINE
  8
0
 10
17.8584
 20
21.2027
 11
16.7333
 21
20.9138
  0
LINE
  8
0
 10
16.7333
 20
20.9138
 11
15.5808
 21
20.7682
  0
LINE
  8
0
 10
15.5808
 20
20.7682
 11
14.4192
 21
20.7682
  0
LINE
  8
0
 10
-85.3505
 20
30.1532
 11
-85.5498
 21
30.1783
  0
LINE
  8
0
 10
-85.5498
 20
30.1783
 11
-85.7444
 21
30.2283
  0
LINE
  8
0
 10
-85.7444
 20
30.2283
 11
-85.9312
 21
30.3023
  0
LINE
  8
0
 10
-85.9312
 20
30.3023
 11
-86.1073
 21
30.3991
  0
LINE
  8
0
 10
-86.1073
 20
30.3991
 11
-86.2699
 21
30.5172
  0
LINE
  8
0
 10
-86.2699
 20
30.5172
 11
-86.4163
 21
30.6547
  0
LINE
  8
0
 10
-86.4163
 20
30.6547
 11
-86.5444
 21
30.8095
  0
LINE
  8
0
 10
-86.5444
 20
30.8095
 11
-86.6521
 21
30.9792
  0
LINE
  8
0
 10
-86.6521
 20
30.9792
 11
-86.7376
 21
31.161
  0
LINE
  8
0
 10
-86.7376
 20
31.161
 11
-86.7997
 21
31.3521
  0
LINE
  8
0
 10
-86.7997
 20
31.3521
 11
-86.8374
 21
31.5495
  0
LINE
  8
0
 10
-86.8374
 20
31.5495
 11
-86.85
 21
31.75
  0
LINE
  8
0
 10
-86.85
 20
31.75
 11
-86.8374
 21
31.9505
  0
LINE
  8
0
 10
-86.8374
 20
31.9505
 11
-86.7997
 21
32.1479
  0
LINE
  8
0
 10
-86.7997
 20
32.1479
 11
-86.7376
 21
32.339
  0
LINE
  8
0
 10
-86.7376
 20
32.339
 11
-86.6521
 21
32.5208
  0
LINE
  8
0
 10
-86.6521
 20
32.5208
 11
-86.5444
 21
32.6904
  0
LINE
  8
0
 10
-86.5444
 20
32.6904
 11
-86.4163
 21
32.8453
  0
LINE
  8
0
 10
-86.4163
 20
32.8453
 11
-86.2699
 21
32.9828
  0
LINE
  8
0
 10
-86.2699
 20
32.9828
 11
-86.1073
 21
33.1009
  0
LINE
  8
0
 10
-86.1073
 20
33.1009
 11
-85.9312
 21
33.1977
  0
LINE
  8
0
 10
-85.9312
 20
33.1977
 11
-85.7444
 21
33.2717
  0
LINE
  8
0
 10
-85.7444
 20
33.2717
 11
-85.5498
 21
33.3217
  0
LINE
  8
0
 10
-85.5498
 20
33.3217
 11
-85.3505
 21
33.3468
  0
LINE
  8
0
 10
-85.3505
 20
33.3468
 11
-85.1495
 21
33.3468
  0
LINE
  8
0
 10
-85.1495
 20
33.3468
 11
-84.9502
 21
33.3217
  0
LINE
  8
0
 10
-84.9502
 20
33.3217
 11
-84.7556
 21
33.2717
  0
LINE
  8
0
 10
-84.7556
 20
33.2717
 11
-84.5687
 21
33.1977
  0
LINE
  8
0
 10
-84.5687
 20
33.1977
 11
-84.3927
 21
33.1009
  0
LINE
  8
0
 10
-84.3927
 20
33.1009
 11
-84.2301
 21
32.9828
  0
LINE
  8
0
 10
-84.2301
 20
32.9828
 11
-84.0836
 21
32.8453
  0
LINE
  8
0
 10
-84.0836
 20
32.8453
 11
-83.9556
 21
32.6904
  0
LINE
  8
0
 10
-83.9556
 20
32.6904
 11
-83.8479
 21
32.5208
  0
LINE
  8
0
 10
-83.8479
 20
32.5208
 11
-83.7623
 21
32.339
  0
LINE
  8
0
 10
-83.7623
 20
32.339
 11
-83.7003
 21
32.1479
  0
LINE
  8
0
 10
-83.7003
 20
32.1479
 11
-83.6626
 21
31.9505
  0
LINE
  8
0
 10
-83.6626
 20
31.9505
 11
-83.65
 21
31.75
  0
LINE
  8
0
 10
-83.65
 20
31.75
 11
-83.6626
 21
31.5495
  0
LINE
  8
0
 10
-83.6626
 20
31.5495
 11
-83.7003
 21
31.3521
  0
LINE
  8
0
 10
-83.7003
 20
31.3521
 11
-83.7623
 21
31.161
  0
LINE
  8
0
 10
-83.7623
 20
31.161
 11
-83.8479
 21
30.9792
  0
LINE
  8
0
 10
-83.8479
 20
30.9792
 11
-83.9556
 21
30.8095
  0
LINE
  8
0
 10
-83.9556
 20
30.8095
 11
-84.0836
 21
30.6547
  0
LINE
  8
0
 10
-84.0836
 20
30.6547
 11
-84.2301
 21
30.5172
  0
LINE
  8
0
 10
-84.2301
 20
30.5172
 11
-84.3927
 21
30.3991
  0
LINE
  8
0
 10
-84.3927
 20
30.3991
 11
-84.5687
 21
30.3023
  0
LINE
  8
0
 10
-84.5687
 20
30.3023
 11
-84.7556
 21
30.2283
  0
LINE
  8
0
 10
-84.7556
 20
30.2283
 11
-84.9502
 21
30.1783
  0
LINE
  8
0
 10
-84.9502
 20
30.1783
 11
-85.1495
 21
30.1532
  0
LINE
  8
0
 10
-85.1495
 20
30.1532
 11
-85.3505
 21
30.1532
  0
LINE
  8
0
 10
64.6495
 20
30.1532
 11
64.4502
 21
30.1783
  0
LINE
  8
0
 10
64.4502
 20
30.1783
 11
64.2556
 21
30.2283
  0
LINE
  8
0
 10
64.2556
 20
30.2283
 11
64.0687
 21
30.3023
  0
LINE
  8
0
 10
64.0687
 20
30.3023
 11
63.8927
 21
30.3991
  0
LINE
  8
0
 10
63.8927
 20
30.3991
 11
63.7301
 21
30.5172
  0
LINE
  8
0
 10
63.7301
 20
30.5172
 11
63.5836
 21
30.6547
  0
LINE
  8
0
 10
63.5836
 20
30.6547
 11
63.4556
 21
30.8095
  0
LINE
  8
0
 10
63.4556
 20
30.8095
 11
63.3479
 21
30.9792
  0
LINE
  8
0
 10
63.3479
 20
30.9792
 11
63.2623
 21
31.161
  0
LINE
  8
0
 10
63.2623
 20
31.161
 11
63.2003
 21
31.3521
  0
LINE
  8
0
 10
63.2003
 20
31.3521
 11
63.1626
 21
31.5495
  0
LINE
  8
0
 10
63.1626
 20
31.5495
 11
63.15
 21
31.75
  0
LINE
  8
0
 10
63.15
 20
31.75
 11
63.1626
 21
31.9505
  0
LINE
  8
0
 10
63.1626
 20
31.9505
 11
63.2003
 21
32.1479
  0
LINE
  8
0
 10
63.2003
 20
32.1479
 11
63.2623
 21
32.339
  0
LINE
  8
0
 10
63.2623
 20
32.339
 11
63.3479
 21
32.5208
  0
LINE
  8
0
 10
63.3479
 20
32.5208
 11
63.4556
 21
32.6904
  0
LINE
  8
0
 10
63.4556
 20
32.6904
 11
63.5836
 21
32.8453
  0
LINE
  8
0
 10
63.5836
 20
32.8453
 11
63.7301
 21
32.9828
  0
LINE
  8
0
 10
63.7301
 20
32.9828
 11
63.8927
 21
33.1009
  0
LINE
  8
0
 10
63.8927
 20
33.1009
 11
64.0687
 21
33.1977
  0
LINE
  8
0
 10
64.0687
 20
33.1977
 11
64.2556
 21
33.2717
  0
LINE
  8
0
 10
64.2556
 20
33.2717
 11
64.4502
 21
33.3217
  0
LINE
  8
0
 10
64.4502
 20
33.3217
 11
64.6495
 21
33.3468
  0
LINE
  8
0
 10
64.6495
 20
33.3468
 11
64.8505
 21
33.3468
  0
LINE
  8
0
 10
64.8505
 20
33.3468
 11
65.0498
 21
33.3217
  0
LINE
  8
0
 10
65.0498
 20
33.3217
 11
65.2444
 21
33.2717
  0
LINE
  8
0
 10
65.2444
 20
33.2717
 11
65.4312
 21
33.1977
  0
LINE
  8
0
 10
65.4312
 20
33.1977
 11
65.6073
 21
33.1009
  0
LINE
  8
0
 10
65.6073
 20
33.1009
 11
65.7699
 21
32.9828
  0
LINE
  8
0
 10
65.7699
 20
32.9828
 11
65.9163
 21
32.8453
  0
LINE
  8
0
 10
65.9163
 20
32.8453
 11
66.0444
 21
32.6904
  0
LINE
  8
0
 10
66.0444
 20
32.6904
 11
66.1521
 21
32.5208
  0
LINE
  8
0
 10
66.1521
 20
32.5208
 11
66.2376
 21
32.339
  0
LINE
  8
0
 10
66.2376
 20
32.339
 11
66.2997
 21
32.1479
  0
LINE
  8
0
 10
66.2997
 20
32.1479
 11
66.3374
 21
31.9505
  0
LINE
  8
0
 10
66.3374
 20
31.9505
 11
66.35
 21
31.75
  0
LINE
  8
0
 10
66.35
 20
31.75
 11
66.3374
 21
31.5495
  0
LINE
  8
0
 10
66.3374
 20
31.5495
 11
66.2997
 21
31.3521
  0
LINE
  8
0
 10
66.2997
 20
31.3521
 11
66.2376
 21
31.161
  0
LINE
  8
0
 10
66.2376
 20
31.161
 11
66.1521
 21
30.9792
  0
LINE
  8
0
 10
66.1521
 20
30.9792
 11
66.0444
 21
30.8095
  0
LINE
  8
0
 10
66.0444
 20
30.8095
 11
65.9163
 21
30.6547
  0
LINE
  8
0
 10
65.9163
 20
30.6547
 11
65.7699
 21
30.5172
  0
LINE
  8
0
 10
65.7699
 20
30.5172
 11
65.6073
 21
30.3991
  0
LINE
  8
0
 10
65.6073
 20
30.3991
 11
65.4312
 21
30.3023
  0
LINE
  8
0
 10
65.4312
 20
30.3023
 11
65.2444
 21
30.2283
  0
LINE
  8
0
 10
65.2444
 20
30.2283
 11
65.0498
 21
30.1783
  0
LINE
  8
0
 10
65.0498
 20
30.1783
 11
64.8505
 21
30.1532
  0
LINE
  8
0
 10
64.8505
 20
30.1532
 11
64.6495
 21
30.1532
  0
LINE
  8
0
 10
-94.8505
 20
27.6532
 11
-95.0498
 21
27.6783
  0
LINE
  8
0
 10
-95.0498
 20
27.6783
 11
-95.2444
 21
27.7283
  0
LINE
  8
0
 10
-95.2444
 20
27.7283
 11
-95.4312
 21
27.8023
  0
LINE
  8
0
 10
-95.4312
 20
27.8023
 11
-95.6073
 21
27.8991
  0
LINE
  8
0
 10
-95.6073
 20
27.8991
 11
-95.7699
 21
28.0172
  0
LINE
  8
0
 10
-95.7699
 20
28.0172
 11
-95.9163
 21
28.1547
  0
LINE
  8
0
 10
-95.9163
 20
28.1547
 11
-96.0444
 21
28.3095
  0
LINE
  8
0
 10
-96.0444
 20
28.3095
 11
-96.1521
 21
28.4792
  0
LINE
  8
0
 10
-96.1521
 20
28.4792
 11
-96.2376
 21
28.661
  0
LINE
  8
0
 10
-96.2376
 20
28.661
 11
-96.2997
 21
28.8521
  0
LINE
  8
0
 10
-96.2997
 20
28.8521
 11
-96.3374
 21
29.0495
  0
LINE
  8
0
 10
-96.3374
 20
29.0495
 11
-96.35
 21
29.25
  0
LINE
  8
0
 10
-96.35
 20
29.25
 11
-96.3374
 21
29.4505
  0
LINE
  8
0
 10
-96.3374
 20
29.4505
 11
-96.2997
 21
29.6479
  0
LINE
  8
0
 10
-96.2997
 20
29.6479
 11
-96.2376
 21
29.839
  0
LINE
  8
0
 10
-96.2376
 20
29.839
 11
-96.1521
 21
30.0208
  0
LINE
  8
0
 10
-96.1521
 20
30.0208
 11
-96.0444
 21
30.1904
  0
LINE
  8
0
 10
-96.0444
 20
30.1904
 11
-95.9163
 21
30.3453
  0
LINE
  8
0
 10
-95.9163
 20
30.3453
 11
-95.7699
 21
30.4828
  0
LINE
  8
0
 10
-95.7699
 20
30.4828
 11
-95.6073
 21
30.6009
  0
LINE
  8
0
 10
-95.6073
 20
30.6009
 11
-95.4312
 21
30.6977
  0
LINE
  8
0
 10
-95.4312
 20
30.6977
 11
-95.2444
 21
30.7717
  0
LINE
  8
0
 10
-95.2444
 20
30.7717
 11
-95.0498
 21
30.8217
  0
LINE
  8
0
 10
-95.0498
 20
30.8217
 11
-94.8505
 21
30.8468
  0
LINE
  8
0
 10
-94.8505
 20
30.8468
 11
-94.6495
 21
30.8468
  0
LINE
  8
0
 10
-94.6495
 20
30.8468
 11
-94.4502
 21
30.8217
  0
LINE
  8
0
 10
-94.4502
 20
30.8217
 11
-94.2556
 21
30.7717
  0
LINE
  8
0
 10
-94.2556
 20
30.7717
 11
-94.0687
 21
30.6977
  0
LINE
  8
0
 10
-94.0687
 20
30.6977
 11
-93.8927
 21
30.6009
  0
LINE
  8
0
 10
-93.8927
 20
30.6009
 11
-93.7301
 21
30.4828
  0
LINE
  8
0
 10
-93.7301
 20
30.4828
 11
-93.5836
 21
30.3453
  0
LINE
  8
0
 10
-93.5836
 20
30.3453
 11
-93.4556
 21
30.1904
  0
LINE
  8
0
 10
-93.4556
 20
30.1904
 11
-93.3479
 21
30.0208
  0
LINE
  8
0
 10
-93.3479
 20
30.0208
 11
-93.2623
 21
29.839
  0
LINE
  8
0
 10
-93.2623
 20
29.839
 11
-93.2003
 21
29.6479
  0
LINE
  8
0
 10
-93.2003
 20
29.6479
 11
-93.1626
 21
29.4505
  0
LINE
  8
0
 10
-93.1626
 20
29.4505
 11
-93.15
 21
29.25
  0
LINE
  8
0
 10
-93.15
 20
29.25
 11
-93.1626
 21
29.0495
  0
LINE
  8
0
 10
-93.1626
 20
29.0495
 11
-93.2003
 21
28.8521
  0
LINE
  8
0
 10
-93.2003
 20
28.8521
 11
-93.2623
 21
28.661
  0
LINE
  8
0
 10
-93.2623
 20
28.661
 11
-93.3479
 21
28.4792
  0
LINE
  8
0
 10
-93.3479
 20
28.4792
 11
-93.4556
 21
28.3095
  0
LINE
  8
0
 10
-93.4556
 20
28.3095
 11
-93.5836
 21
28.1547
  0
LINE
  8
0
 10
-93.5836
 20
28.1547
 11
-93.7301
 21
28.0172
  0
LINE
  8
0
 10
-93.7301
 20
28.0172
 11
-93.8927
 21
27.8991
  0
LINE
  8
0
 10
-93.8927
 20
27.8991
 11
-94.0687
 21
27.8023
  0
LINE
  8
0
 10
-94.0687
 20
27.8023
 11
-94.2556
 21
27.7283
  0
LINE
  8
0
 10
-94.2556
 20
27.7283
 11
-94.4502
 21
27.6783
  0
LINE
  8
0
 10
-94.4502
 20
27.6783
 11
-94.6495
 21
27.6532
  0
LINE
  8
0
 10
-94.6495
 20
27.6532
 11
-94.8505
 21
27.6532
  0
LINE
  8
0
 10
115.15
 20
27.6532
 11
114.95
 21
27.6783
  0
LINE
  8
0
 10
114.95
 20
27.6783
 11
114.756
 21
27.7283
  0
LINE
  8
0
 10
114.756
 20
27.7283
 11
114.569
 21
27.8023
  0
LINE
  8
0
 10
114.569
 20
27.8023
 11
114.393
 21
27.8991
  0
LINE
  8
0
 10
114.393
 20
27.8991
 11
114.23
 21
28.0172
  0
LINE
  8
0
 10
114.23
 20
28.0172
 11
114.084
 21
28.1547
  0
LINE
  8
0
 10
114.084
 20
28.1547
 11
113.956
 21
28.3095
  0
LINE
  8
0
 10
113.956
 20
28.3095
 11
113.848
 21
28.4792
  0
LINE
  8
0
 10
113.848
 20
28.4792
 11
113.762
 21
28.661
  0
LINE
  8
0
 10
113.762
 20
28.661
 11
113.7
 21
28.8521
  0
LINE
  8
0
 10
113.7
 20
28.8521
 11
113.663
 21
29.0495
  0
LINE
  8
0
 10
113.663
 20
29.0495
 11
113.65
 21
29.25
  0
LINE
  8
0
 10
113.65
 20
29.25
 11
113.663
 21
29.4505
  0
LINE
  8
0
 10
113.663
 20
29.4505
 11
113.7
 21
29.6479
  0
LINE
  8
0
 10
113.7
 20
29.6479
 11
113.762
 21
29.839
  0
LINE
  8
0
 10
113.762
 20
29.839
 11
113.848
 21
30.0208
  0
LINE
  8
0
 10
113.848
 20
30.0208
 11
113.956
 21
30.1904
  0
LINE
  8
0
 10
113.956
 20
30.1904
 11
114.084
 21
30.3453
  0
LINE
  8
0
 10
114.084
 20
30.3453
 11
114.23
 21
30.4828
  0
LINE
  8
0
 10
114.23
 20
30.4828
 11
114.393
 21
30.6009
  0
LINE
  8
0
 10
114.393
 20
30.6009
 11
114.569
 21
30.6977
  0
LINE
  8
0
 10
114.569
 20
30.6977
 11
114.756
 21
30.7717
  0
LINE
  8
0
 10
114.756
 20
30.7717
 11
114.95
 21
30.8217
  0
LINE
  8
0
 10
114.95
 20
30.8217
 11
115.15
 21
30.8468
  0
LINE
  8
0
 10
115.15
 20
30.8468
 11
115.35
 21
30.8468
  0
LINE
  8
0
 10
115.35
 20
30.8468
 11
115.55
 21
30.8217
  0
LINE
  8
0
 10
115.55
 20
30.8217
 11
115.744
 21
30.7717
  0
LINE
  8
0
 10
115.744
 20
30.7717
 11
115.931
 21
30.6977
  0
LINE
  8
0
 10
115.931
 20
30.6977
 11
116.107
 21
30.6009
  0
LINE
  8
0
 10
116.107
 20
30.6009
 11
116.27
 21
30.4828
  0
LINE
  8
0
 10
116.27
 20
30.4828
 11
116.416
 21
30.3453
  0
LINE
  8
0
 10
116.416
 20
30.3453
 11
116.544
 21
30.1904
  0
LINE
  8
0
 10
116.544
 20
30.1904
 11
116.652
 21
30.0208
  0
LINE
  8
0
 10
116.652
 20
30.0208
 11
116.738
 21
29.839
  0
LINE
  8
0
 10
116.738
 20
29.839
 11
116.8
 21
29.6479
  0
LINE
  8
0
 10
116.8
 20
29.6479
 11
116.837
 21
29.4505
  0
LINE
  8
0
 10
116.837
 20
29.4505
 11
116.85
 21
29.25
  0
LINE
  8
0
 10
116.85
 20
29.25
 11
116.837
 21
29.0495
  0
LINE
  8
0
 10
116.837
 20
29.0495
 11
116.8
 21
28.8521
  0
LINE
  8
0
 10
116.8
 20
28.8521
 11
116.738
 21
28.661
  0
LINE
  8
0
 10
116.738
 20
28.661
 11
116.652
 21
28.4792
  0
LINE
  8
0
 10
116.652
 20
28.4792
 11
116.544
 21
28.3095
  0
LINE
  8
0
 10
116.544
 20
28.3095
 11
116.416
 21
28.1547
  0
LINE
  8
0
 10
116.416
 20
28.1547
 11
116.27
 21
28.0172
  0
LINE
  8
0
 10
116.27
 20
28.0172
 11
116.107
 21
27.8991
  0
LINE
  8
0
 10
116.107
 20
27.8991
 11
115.931
 21
27.8023
  0
LINE
  8
0
 10
115.931
 20
27.8023
 11
115.744
 21
27.7283
  0
LINE
  8
0
 10
115.744
 20
27.7283
 11
115.55
 21
27.6783
  0
LINE
  8
0
 10
115.55
 20
27.6783
 11
115.35
 21
27.6532
  0
LINE
  8
0
 10
115.35
 20
27.6532
 11
115.15
 21
27.6532
  0
LINE
  8
0
 10
-105.581
 20
9.76825
 11
-106.733
 21
9.91383
  0
LINE
  8
0
 10
-106.733
 20
9.91383
 11
-107.858
 21
10.2027
  0
LINE
  8
0
 10
-107.858
 20
10.2027
 11
-108.938
 21
10.6303
  0
LINE
  8
0
 10
-108.938
 20
10.6303
 11
-109.956
 21
11.19
  0
LINE
  8
0
 10
-109.956
 20
11.19
 11
-110.896
 21
11.8727
  0
LINE
  8
0
 10
-110.896
 20
11.8727
 11
-111.743
 21
12.6679
  0
LINE
  8
0
 10
-111.743
 20
12.6679
 11
-112.483
 21
13.563
  0
LINE
  8
0
 10
-112.483
 20
13.563
 11
-113.106
 21
14.5438
  0
LINE
  8
0
 10
-113.106
 20
14.5438
 11
-113.6
 21
15.5948
  0
LINE
  8
0
 10
-113.6
 20
15.5948
 11
-113.959
 21
16.6996
  0
LINE
  8
0
 10
-113.959
 20
16.6996
 11
-114.177
 21
17.8407
  0
LINE
  8
0
 10
-114.177
 20
17.8407
 11
-114.25
 21
19
  0
LINE
  8
0
 10
-114.25
 20
19
 11
-114.177
 21
20.1593
  0
LINE
  8
0
 10
-114.177
 20
20.1593
 11
-113.959
 21
21.3004
  0
LINE
  8
0
 10
-113.959
 20
21.3004
 11
-113.6
 21
22.4052
  0
LINE
  8
0
 10
-113.6
 20
22.4052
 11
-113.106
 21
23.4562
  0
LINE
  8
0
 10
-113.106
 20
23.4562
 11
-112.483
 21
24.437
  0
LINE
  8
0
 10
-112.483
 20
24.437
 11
-111.743
 21
25.332
  0
LINE
  8
0
 10
-111.743
 20
25.332
 11
-110.896
 21
26.1272
  0
LINE
  8
0
 10
-110.896
 20
26.1272
 11
-109.956
 21
26.81
  0
LINE
  8
0
 10
-109.956
 20
26.81
 11
-108.938
 21
27.3696
  0
LINE
  8
0
 10
-108.938
 20
27.3696
 11
-107.858
 21
27.7973
  0
LINE
  8
0
 10
-107.858
 20
27.7973
 11
-106.733
 21
28.0862
  0
LINE
  8
0
 10
-106.733
 20
28.0862
 11
-105.581
 21
28.2317
  0
LINE
  8
0
 10
-105.581
 20
28.2317
 11
-104.419
 21
28.2317
  0
LINE
  8
0
 10
-104.419
 20
28.2317
 11
-103.267
 21
28.0862
  0
LINE
  8
0
 10
-103.267
 20
28.0862
 11
-102.142
 21
27.7973
  0
LINE
  8
0
 10
-102.142
 20
27.7973
 11
-101.062
 21
27.3696
  0
LINE
  8
0
 10
-101.062
 20
27.3696
 11
-100.044
 21
26.81
  0
LINE
  8
0
 10
-100.044
 20
26.81
 11
-99.1038
 21
26.1272
  0
LINE
  8
0
 10
-99.1038
 20
26.1272
 11
-98.257
 21
25.332
  0
LINE
  8
0
 10
-98.257
 20
25.332
 11
-97.5166
 21
24.437
  0
LINE
  8
0
 10
-97.5166
 20
24.437
 11
-96.8941
 21
23.4562
  0
LINE
  8
0
 10
-96.8941
 20
23.4562
 11
-96.3996
 21
22.4052
  0
LINE
  8
0
 10
-96.3996
 20
22.4052
 11
-96.0406
 21
21.3004
  0
LINE
  8
0
 10
-96.0406
 20
21.3004
 11
-95.8229
 21
20.1593
  0
LINE
  8
0
 10
-95.8229
 20
20.1593
 11
-95.75
 21
19
  0
LINE
  8
0
 10
-95.75
 20
19
 11
-95.8229
 21
17.8407
  0
LINE
  8
0
 10
-95.8229
 20
17.8407
 11
-96.0406
 21
16.6996
  0
LINE
  8
0
 10
-96.0406
 20
16.6996
 11
-96.3996
 21
15.5948
  0
LINE
  8
0
 10
-96.3996
 20
15.5948
 11
-96.8941
 21
14.5438
  0
LINE
  8
0
 10
-96.8941
 20
14.5438
 11
-97.5166
 21
13.563
  0
LINE
  8
0
 10
-97.5166
 20
13.563
 11
-98.257
 21
12.6679
  0
LINE
  8
0
 10
-98.257
 20
12.6679
 11
-99.1038
 21
11.8727
  0
LINE
  8
0
 10
-99.1038
 20
11.8727
 11
-100.044
 21
11.19
  0
LINE
  8
0
 10
-100.044
 20
11.19
 11
-101.062
 21
10.6303
  0
LINE
  8
0
 10
-101.062
 20
10.6303
 11
-102.142
 21
10.2027
  0
LINE
  8
0
 10
-102.142
 20
10.2027
 11
-103.267
 21
9.91383
  0
LINE
  8
0
 10
-103.267
 20
9.91383
 11
-104.419
 21
9.76825
  0
LINE
  8
0
 10
-104.419
 20
9.76825
 11
-105.581
 21
9.76825
  0
LINE
  8
0
 10
104.419
 20
9.76825
 11
103.267
 21
9.91383
  0
LINE
  8
0
 10
103.267
 20
9.91383
 11
102.142
 21
10.2027
  0
LINE
  8
0
 10
102.142
 20
10.2027
 11
101.062
 21
10.6303
  0
LINE
  8
0
 10
101.062
 20
10.6303
 11
100.044
 21
11.19
  0
LINE
  8
0
 10
100.044
 20
11.19
 11
99.1038
 21
11.8727
  0
LINE
  8
0
 10
99.1038
 20
11.8727
 11
98.257
 21
12.6679
  0
LINE
  8
0
 10
98.257
 20
12.6679
 11
97.5166
 21
13.563
  0
LINE
  8
0
 10
97.5166
 20
13.563
 11
96.8941
 21
14.5438
  0
LINE
  8
0
 10
96.8941
 20
14.5438
 11
96.3996
 21
15.5948
  0
LINE
  8
0
 10
96.3996
 20
15.5948
 11
96.0406
 21
16.6996
  0
LINE
  8
0
 10
96.0406
 20
16.6996
 11
95.8229
 21
17.8407
  0
LINE
  8
0
 10
95.8229
 20
17.8407
 11
95.75
 21
19
  0
LINE
  8
0
 10
95.75
 20
19
 11
95.8229
 21
20.1593
  0
LINE
  8
0
 10
95.8229
 20
20.1593
 11
96.0406
 21
21.3004
  0
LINE
  8
0
 10
96.0406
 20
21.3004
 11
96.3996
 21
22.4052
  0
LINE
  8
0
 10
96.3996
 20
22.4052
 11
96.8941
 21
23.4562
  0
LINE
  8
0
 10
96.8941
 20
23.4562
 11
97.5166
 21
24.437
  0
LINE
  8
0
 10
97.5166
 20
24.437
 11
98.257
 21
25.332
  0
LINE
  8
0
 10
98.257
 20
25.332
 11
99.1038
 21
26.1272
  0
LINE
  8
0
 10
99.1038
 20
26.1272
 11
100.044
 21
26.81
  0
LINE
  8
0
 10
100.044
 20
26.81
 11
101.062
 21
27.3696
  0
LINE
  8
0
 10
101.062
 20
27.3696
 11
102.142
 21
27.7973
  0
LINE
  8
0
 10
102.142
 20
27.7973
 11
103.267
 21
28.0862
  0
LINE
  8
0
 10
103.267
 20
28.0862
 11
104.419
 21
28.2317
  0
LINE
  8
0
 10
104.419
 20
28.2317
 11
105.581
 21
28.2317
  0
LINE
  8
0
 10
105.581
 20
28.2317
 11
106.733
 21
28.0862
  0
LINE
  8
0
 10
106.733
 20
28.0862
 11
107.858
 21
27.7973
  0
LINE
  8
0
 10
107.858
 20
27.7973
 11
108.938
 21
27.3696
  0
LINE
  8
0
 10
108.938
 20
27.3696
 11
109.956
 21
26.81
  0
LINE
  8
0
 10
109.956
 20
26.81
 11
110.896
 21
26.1272
  0
LINE
  8
0
 10
110.896
 20
26.1272
 11
111.743
 21
25.332
  0
LINE
  8
0
 10
111.743
 20
25.332
 11
112.483
 21
24.437
  0
LINE
  8
0
 10
112.483
 20
24.437
 11
113.106
 21
23.4562
  0
LINE
  8
0
 10
113.106
 20
23.4562
 11
113.6
 21
22.4052
  0
LINE
  8
0
 10
113.6
 20
22.4052
 11
113.959
 21
21.3004
  0
LINE
  8
0
 10
113.959
 20
21.3004
 11
114.177
 21
20.1593
  0
LINE
  8
0
 10
114.177
 20
20.1593
 11
114.25
 21
19
  0
LINE
  8
0
 10
114.25
 20
19
 11
114.177
 21
17.8407
  0
LINE
  8
0
 10
114.177
 20
17.8407
 11
113.959
 21
16.6996
  0
LINE
  8
0
 10
113.959
 20
16.6996
 11
113.6
 21
15.5948
  0
LINE
  8
0
 10
113.6
 20
15.5948
 11
113.106
 21
14.5438
  0
LINE
  8
0
 10
113.106
 20
14.5438
 11
112.483
 21
13.563
  0
LINE
  8
0
 10
112.483
 20
13.563
 11
111.743
 21
12.6679
  0
LINE
  8
0
 10
111.743
 20
12.6679
 11
110.896
 21
11.8727
  0
LINE
  8
0
 10
110.896
 20
11.8727
 11
109.956
 21
11.19
  0
LINE
  8
0
 10
109.956
 20
11.19
 11
108.938
 21
10.6303
  0
LINE
  8
0
 10
108.938
 20
10.6303
 11
107.858
 21
10.2027
  0
LINE
  8
0
 10
107.858
 20
10.2027
 11
106.733
 21
9.91383
  0
LINE
  8
0
 10
106.733
 20
9.91383
 11
105.581
 21
9.76825
  0
LINE
  8
0
 10
105.581
 20
9.76825
 11
104.419
 21
9.76825
  0
LINE
  8
0
 10
4.64952
 20
18.1532
 11
4.45018
 21
18.1783
  0
LINE
  8
0
 10
4.45018
 20
18.1783
 11
4.25557
 21
18.2283
  0
LINE
  8
0
 10
4.25557
 20
18.2283
 11
4.06874
 21
18.3023
  0
LINE
  8
0
 10
4.06874
 20
18.3023
 11
3.89267
 21
18.3991
  0
LINE
  8
0
 10
3.89267
 20
18.3991
 11
3.73012
 21
18.5172
  0
LINE
  8
0
 10
3.73012
 20
18.5172
 11
3.58365
 21
18.6547
  0
LINE
  8
0
 10
3.58365
 20
18.6547
 11
3.45557
 21
18.8095
  0
LINE
  8
0
 10
3.45557
 20
18.8095
 11
3.3479
 21
18.9792
  0
LINE
  8
0
 10
3.3479
 20
18.9792
 11
3.26234
 21
19.161
  0
LINE
  8
0
 10
3.26234
 20
19.161
 11
3.20026
 21
19.3521
  0
LINE
  8
0
 10
3.20026
 20
19.3521
 11
3.16261
 21
19.5495
  0
LINE
  8
0
 10
3.16261
 20
19.5495
 11
3.14999
 21
19.75
  0
LINE
  8
0
 10
3.14999
 20
19.75
 11
3.16261
 21
19.9505
  0
LINE
  8
0
 10
3.16261
 20
19.9505
 11
3.20026
 21
20.1479
  0
LINE
  8
0
 10
3.20026
 20
20.1479
 11
3.26234
 21
20.339
  0
LINE
  8
0
 10
3.26234
 20
20.339
 11
3.3479
 21
20.5208
  0
LINE
  8
0
 10
3.3479
 20
20.5208
 11
3.45557
 21
20.6904
  0
LINE
  8
0
 10
3.45557
 20
20.6904
 11
3.58365
 21
20.8453
  0
LINE
  8
0
 10
3.58365
 20
20.8453
 11
3.73012
 21
20.9828
  0
LINE
  8
0
 10
3.73012
 20
20.9828
 11
3.89267
 21
21.1009
  0
LINE
  8
0
 10
3.89267
 20
21.1009
 11
4.06874
 21
21.1977
  0
LINE
  8
0
 10
4.06874
 20
21.1977
 11
4.25557
 21
21.2717
  0
LINE
  8
0
 10
4.25557
 20
21.2717
 11
4.45018
 21
21.3217
  0
LINE
  8
0
 10
4.45018
 20
21.3217
 11
4.64952
 21
21.3468
  0
LINE
  8
0
 10
4.64952
 20
21.3468
 11
4.85046
 21
21.3468
  0
LINE
  8
0
 10
4.85046
 20
21.3468
 11
5.0498
 21
21.3217
  0
LINE
  8
0
 10
5.0498
 20
21.3217
 11
5.24442
 21
21.2717
  0
LINE
  8
0
 10
5.24442
 20
21.2717
 11
5.43124
 21
21.1977
  0
LINE
  8
0
 10
5.43124
 20
21.1977
 11
5.60732
 21
21.1009
  0
LINE
  8
0
 10
5.60732
 20
21.1009
 11
5.76987
 21
20.9828
  0
LINE
  8
0
 10
5.76987
 20
20.9828
 11
5.91634
 21
20.8453
  0
LINE
  8
0
 10
5.91634
 20
20.8453
 11
6.04442
 21
20.6904
  0
LINE
  8
0
 10
6.04442
 20
20.6904
 11
6.15208
 21
20.5208
  0
LINE
  8
0
 10
6.15208
 20
20.5208
 11
6.23764
 21
20.339
  0
LINE
  8
0
 10
6.23764
 20
20.339
 11
6.29973
 21
20.1479
  0
LINE
  8
0
 10
6.29973
 20
20.1479
 11
6.33737
 21
19.9505
  0
LINE
  8
0
 10
6.33737
 20
19.9505
 11
6.34999
 21
19.75
  0
LINE
  8
0
 10
6.34999
 20
19.75
 11
6.33737
 21
19.5495
  0
LINE
  8
0
 10
6.33737
 20
19.5495
 11
6.29973
 21
19.3521
  0
LINE
  8
0
 10
6.29973
 20
19.3521
 11
6.23764
 21
19.161
  0
LINE
  8
0
 10
6.23764
 20
19.161
 11
6.15208
 21
18.9792
  0
LINE
  8
0
 10
6.15208
 20
18.9792
 11
6.04442
 21
18.8095
  0
LINE
  8
0
 10
6.04442
 20
18.8095
 11
5.91634
 21
18.6547
  0
LINE
  8
0
 10
5.91634
 20
18.6547
 11
5.76987
 21
18.5172
  0
LINE
  8
0
 10
5.76987
 20
18.5172
 11
5.60732
 21
18.3991
  0
LINE
  8
0
 10
5.60732
 20
18.3991
 11
5.43124
 21
18.3023
  0
LINE
  8
0
 10
5.43124
 20
18.3023
 11
5.24442
 21
18.2283
  0
LINE
  8
0
 10
5.24442
 20
18.2283
 11
5.0498
 21
18.1783
  0
LINE
  8
0
 10
5.0498
 20
18.1783
 11
4.85046
 21
18.1532
  0
LINE
  8
0
 10
4.85046
 20
18.1532
 11
4.64952
 21
18.1532
  0
LINE
  8
0
 10
-25.3505
 20
18.1532
 11
-25.5498
 21
18.1783
  0
LINE
  8
0
 10
-25.5498
 20
18.1783
 11
-25.7444
 21
18.2283
  0
LINE
  8
0
 10
-25.7444
 20
18.2283
 11
-25.9312
 21
18.3023
  0
LINE
  8
0
 10
-25.9312
 20
18.3023
 11
-26.1073
 21
18.3991
  0
LINE
  8
0
 10
-26.1073
 20
18.3991
 11
-26.2699
 21
18.5172
  0
LINE
  8
0
 10
-26.2699
 20
18.5172
 11
-26.4163
 21
18.6547
  0
LINE
  8
0
 10
-26.4163
 20
18.6547
 11
-26.5444
 21
18.8095
  0
LINE
  8
0
 10
-26.5444
 20
18.8095
 11
-26.6521
 21
18.9792
  0
LINE
  8
0
 10
-26.6521
 20
18.9792
 11
-26.7376
 21
19.161
  0
LINE
  8
0
 10
-26.7376
 20
19.161
 11
-26.7997
 21
19.3521
  0
LINE
  8
0
 10
-26.7997
 20
19.3521
 11
-26.8374
 21
19.5495
  0
LINE
  8
0
 10
-26.8374
 20
19.5495
 11
-26.85
 21
19.75
  0
LINE
  8
0
 10
-26.85
 20
19.75
 11
-26.8374
 21
19.9505
  0
LINE
  8
0
 10
-26.8374
 20
19.9505
 11
-26.7997
 21
20.1479
  0
LINE
  8
0
 10
-26.7997
 20
20.1479
 11
-26.7376
 21
20.339
  0
LINE
  8
0
 10
-26.7376
 20
20.339
 11
-26.6521
 21
20.5208
  0
LINE
  8
0
 10
-26.6521
 20
20.5208
 11
-26.5444
 21
20.6904
  0
LINE
  8
0
 10
-26.5444
 20
20.6904
 11
-26.4163
 21
20.8453
  0
LINE
  8
0
 10
-26.4163
 20
20.8453
 11
-26.2699
 21
20.9828
  0
LINE
  8
0
 10
-26.2699
 20
20.9828
 11
-26.1073
 21
21.1009
  0
LINE
  8
0
 10
-26.1073
 20
21.1009
 11
-25.9312
 21
21.1977
  0
LINE
  8
0
 10
-25.9312
 20
21.1977
 11
-25.7444
 21
21.2717
  0
LINE
  8
0
 10
-25.7444
 20
21.2717
 11
-25.5498
 21
21.3217
  0
LINE
  8
0
 10
-25.5498
 20
21.3217
 11
-25.3505
 21
21.3468
  0
LINE
  8
0
 10
-25.3505
 20
21.3468
 11
-25.1495
 21
21.3468
  0
LINE
  8
0
 10
-25.1495
 20
21.3468
 11
-24.9502
 21
21.3217
  0
LINE
  8
0
 10
-24.9502
 20
21.3217
 11
-24.7556
 21
21.2717
  0
LINE
  8
0
 10
-24.7556
 20
21.2717
 11
-24.5687
 21
21.1977
  0
LINE
  8
0
 10
-24.5687
 20
21.1977
 11
-24.3927
 21
21.1009
  0
LINE
  8
0
 10
-24.3927
 20
21.1009
 11
-24.2301
 21
20.9828
  0
LINE
  8
0
 10
-24.2301
 20
20.9828
 11
-24.0836
 21
20.8453
  0
LINE
  8
0
 10
-24.0836
 20
20.8453
 11
-23.9556
 21
20.6904
  0
LINE
  8
0
 10
-23.9556
 20
20.6904
 11
-23.8479
 21
20.5208
  0
LINE
  8
0
 10
-23.8479
 20
20.5208
 11
-23.7623
 21
20.339
  0
LINE
  8
0
 10
-23.7623
 20
20.339
 11
-23.7003
 21
20.1479
  0
LINE
  8
0
 10
-23.7003
 20
20.1479
 11
-23.6626
 21
19.9505
  0
LINE
  8
0
 10
-23.6626
 20
19.9505
 11
-23.65
 21
19.75
  0
LINE
  8
0
 10
-23.65
 20
19.75
 11
-23.6626
 21
19.5495
  0
LINE
  8
0
 10
-23.6626
 20
19.5495
 11
-23.7003
 21
19.3521
  0
LINE
  8
0
 10
-23.7003
 20
19.3521
 11
-23.7623
 21
19.161
  0
LINE
  8
0
 10
-23.7623
 20
19.161
 11
-23.8479
 21
18.9792
  0
LINE
  8
0
 10
-23.8479
 20
18.9792
 11
-23.9556
 21
18.8095
  0
LINE
  8
0
 10
-23.9556
 20
18.8095
 11
-24.0836
 21
18.6547
  0
LINE
  8
0
 10
-24.0836
 20
18.6547
 11
-24.2301
 21
18.5172
  0
LINE
  8
0
 10
-24.2301
 20
18.5172
 11
-24.3927
 21
18.3991
  0
LINE
  8
0
 10
-24.3927
 20
18.3991
 11
-24.5687
 21
18.3023
  0
LINE
  8
0
 10
-24.5687
 20
18.3023
 11
-24.7556
 21
18.2283
  0
LINE
  8
0
 10
-24.7556
 20
18.2283
 11
-24.9502
 21
18.1783
  0
LINE
  8
0
 10
-24.9502
 20
18.1783
 11
-25.1495
 21
18.1532
  0
LINE
  8
0
 10
-25.1495
 20
18.1532
 11
-25.3505
 21
18.1532
  0
LINE
  8
0
 10
-115.35
 20
7.15315
 11
-115.55
 21
7.17833
  0
LINE
  8
0
 10
-115.55
 20
7.17833
 11
-115.744
 21
7.2283
  0
LINE
  8
0
 10
-115.744
 20
7.2283
 11
-115.931
 21
7.30228
  0
LINE
  8
0
 10
-115.931
 20
7.30228
 11
-116.107
 21
7.39906
  0
LINE
  8
0
 10
-116.107
 20
7.39906
 11
-116.27
 21
7.51717
  0
LINE
  8
0
 10
-116.27
 20
7.51717
 11
-116.416
 21
7.65472
  0
LINE
  8
0
 10
-116.416
 20
7.65472
 11
-116.544
 21
7.80954
  0
LINE
  8
0
 10
-116.544
 20
7.80954
 11
-116.652
 21
7.97919
  0
LINE
  8
0
 10
-116.652
 20
7.97919
 11
-116.738
 21
8.161
  0
LINE
  8
0
 10
-116.738
 20
8.161
 11
-116.8
 21
8.35208
  0
LINE
  8
0
 10
-116.8
 20
8.35208
 11
-116.837
 21
8.54945
  0
LINE
  8
0
 10
-116.837
 20
8.54945
 11
-116.85
 21
8.75
  0
LINE
  8
0
 10
-116.85
 20
8.75
 11
-116.837
 21
8.95053
  0
LINE
  8
0
 10
-116.837
 20
8.95053
 11
-116.8
 21
9.1479
  0
LINE
  8
0
 10
-116.8
 20
9.1479
 11
-116.738
 21
9.33899
  0
LINE
  8
0
 10
-116.738
 20
9.33899
 11
-116.652
 21
9.5208
  0
LINE
  8
0
 10
-116.652
 20
9.5208
 11
-116.544
 21
9.69044
  0
LINE
  8
0
 10
-116.544
 20
9.69044
 11
-116.416
 21
9.84526
  0
LINE
  8
0
 10
-116.416
 20
9.84526
 11
-116.27
 21
9.98282
  0
LINE
  8
0
 10
-116.27
 20
9.98282
 11
-116.107
 21
10.1009
  0
LINE
  8
0
 10
-116.107
 20
10.1009
 11
-115.931
 21
10.1977
  0
LINE
  8
0
 10
-115.931
 20
10.1977
 11
-115.744
 21
10.2717
  0
LINE
  8
0
 10
-115.744
 20
10.2717
 11
-115.55
 21
10.3217
  0
LINE
  8
0
 10
-115.55
 20
10.3217
 11
-115.35
 21
10.3468
  0
LINE
  8
0
 10
-115.35
 20
10.3468
 11
-115.15
 21
10.3468
  0
LINE
  8
0
 10
-115.15
 20
10.3468
 11
-114.95
 21
10.3217
  0
LINE
  8
0
 10
-114.95
 20
10.3217
 11
-114.756
 21
10.2717
  0
LINE
  8
0
 10
-114.756
 20
10.2717
 11
-114.569
 21
10.1977
  0
LINE
  8
0
 10
-114.569
 20
10.1977
 11
-114.393
 21
10.1009
  0
LINE
  8
0
 10
-114.393
 20
10.1009
 11
-114.23
 21
9.98282
  0
LINE
  8
0
 10
-114.23
 20
9.98282
 11
-114.084
 21
9.84526
  0
LINE
  8
0
 10
-114.084
 20
9.84526
 11
-113.956
 21
9.69044
  0
LINE
  8
0
 10
-113.956
 20
9.69044
 11
-113.848
 21
9.5208
  0
LINE
  8
0
 10
-113.848
 20
9.5208
 11
-113.762
 21
9.33899
  0
LINE
  8
0
 10
-113.762
 20
9.33899
 11
-113.7
 21
9.1479
  0
LINE
  8
0
 10
-113.7
 20
9.1479
 11
-113.663
 21
8.95053
  0
LINE
  8
0
 10
-113.663
 20
8.95053
 11
-113.65
 21
8.75
  0
LINE
  8
0
 10
-113.65
 20
8.75
 11
-113.663
 21
8.54945
  0
LINE
  8
0
 10
-113.663
 20
8.54945
 11
-113.7
 21
8.35208
  0
LINE
  8
0
 10
-113.7
 20
8.35208
 11
-113.762
 21
8.161
  0
LINE
  8
0
 10
-113.762
 20
8.161
 11
-113.848
 21
7.97919
  0
LINE
  8
0
 10
-113.848
 20
7.97919
 11
-113.956
 21
7.80954
  0
LINE
  8
0
 10
-113.956
 20
7.80954
 11
-114.084
 21
7.65472
  0
LINE
  8
0
 10
-114.084
 20
7.65472
 11
-114.23
 21
7.51717
  0
LINE
  8
0
 10
-114.23
 20
7.51717
 11
-114.393
 21
7.39906
  0
LINE
  8
0
 10
-114.393
 20
7.39906
 11
-114.569
 21
7.30228
  0
LINE
  8
0
 10
-114.569
 20
7.30228
 11
-114.756
 21
7.2283
  0
LINE
  8
0
 10
-114.756
 20
7.2283
 11
-114.95
 21
7.17833
  0
LINE
  8
0
 10
-114.95
 20
7.17833
 11
-115.15
 21
7.15315
  0
LINE
  8
0
 10
-115.15
 20
7.15315
 11
-115.35
 21
7.15315
  0
LINE
  8
0
 10
94.6495
 20
7.15315
 11
94.4502
 21
7.17833
  0
LINE
  8
0
 10
94.4502
 20
7.17833
 11
94.2556
 21
7.2283
  0
LINE
  8
0
 10
94.2556
 20
7.2283
 11
94.0687
 21
7.30228
  0
LINE
  8
0
 10
94.0687
 20
7.30228
 11
93.8927
 21
7.39906
  0
LINE
  8
0
 10
93.8927
 20
7.39906
 11
93.7301
 21
7.51717
  0
LINE
  8
0
 10
93.7301
 20
7.51717
 11
93.5836
 21
7.65472
  0
LINE
  8
0
 10
93.5836
 20
7.65472
 11
93.4556
 21
7.80954
  0
LINE
  8
0
 10
93.4556
 20
7.80954
 11
93.3479
 21
7.97919
  0
LINE
  8
0
 10
93.3479
 20
7.97919
 11
93.2623
 21
8.161
  0
LINE
  8
0
 10
93.2623
 20
8.161
 11
93.2003
 21
8.35208
  0
LINE
  8
0
 10
93.2003
 20
8.35208
 11
93.1626
 21
8.54945
  0
LINE
  8
0
 10
93.1626
 20
8.54945
 11
93.15
 21
8.75
  0
LINE
  8
0
 10
93.15
 20
8.75
 11
93.1626
 21
8.95053
  0
LINE
  8
0
 10
93.1626
 20
8.95053
 11
93.2003
 21
9.1479
  0
LINE
  8
0
 10
93.2003
 20
9.1479
 11
93.2623
 21
9.33899
  0
LINE
  8
0
 10
93.2623
 20
9.33899
 11
93.3479
 21
9.5208
  0
LINE
  8
0
 10
93.3479
 20
9.5208
 11
93.4556
 21
9.69044
  0
LINE
  8
0
 10
93.4556
 20
9.69044
 11
93.5836
 21
9.84526
  0
LINE
  8
0
 10
93.5836
 20
9.84526
 11
93.7301
 21
9.98282
  0
LINE
  8
0
 10
93.7301
 20
9.98282
 11
93.8927
 21
10.1009
  0
LINE
  8
0
 10
93.8927
 20
10.1009
 11
94.0687
 21
10.1977
  0
LINE
  8
0
 10
94.0687
 20
10.1977
 11
94.2556
 21
10.2717
  0
LINE
  8
0
 10
94.2556
 20
10.2717
 11
94.4502
 21
10.3217
  0
LINE
  8
0
 10
94.4502
 20
10.3217
 11
94.6495
 21
10.3468
  0
LINE
  8
0
 10
94.6495
 20
10.3468
 11
94.8505
 21
10.3468
  0
LINE
  8
0
 10
94.8505
 20
10.3468
 11
95.0498
 21
10.3217
  0
LINE
  8
0
 10
95.0498
 20
10.3217
 11
95.2444
 21
10.2717
  0
LINE
  8
0
 10
95.2444
 20
10.2717
 11
95.4312
 21
10.1977
  0
LINE
  8
0
 10
95.4312
 20
10.1977
 11
95.6073
 21
10.1009
  0
LINE
  8
0
 10
95.6073
 20
10.1009
 11
95.7699
 21
9.98282
  0
LINE
  8
0
 10
95.7699
 20
9.98282
 11
95.9163
 21
9.84526
  0
LINE
  8
0
 10
95.9163
 20
9.84526
 11
96.0444
 21
9.69044
  0
LINE
  8
0
 10
96.0444
 20
9.69044
 11
96.1521
 21
9.5208
  0
LINE
  8
0
 10
96.1521
 20
9.5208
 11
96.2376
 21
9.33899
  0
LINE
  8
0
 10
96.2376
 20
9.33899
 11
96.2997
 21
9.1479
  0
LINE
  8
0
 10
96.2997
 20
9.1479
 11
96.3374
 21
8.95053
  0
LINE
  8
0
 10
96.3374
 20
8.95053
 11
96.35
 21
8.75
  0
LINE
  8
0
 10
96.35
 20
8.75
 11
96.3374
 21
8.54945
  0
LINE
  8
0
 10
96.3374
 20
8.54945
 11
96.2997
 21
8.35208
  0
LINE
  8
0
 10
96.2997
 20
8.35208
 11
96.2376
 21
8.161
  0
LINE
  8
0
 10
96.2376
 20
8.161
 11
96.1521
 21
7.97919
  0
LINE
  8
0
 10
96.1521
 20
7.97919
 11
96.0444
 21
7.80954
  0
LINE
  8
0
 10
96.0444
 20
7.80954
 11
95.9163
 21
7.65472
  0
LINE
  8
0
 10
95.9163
 20
7.65472
 11
95.7699
 21
7.51717
  0
LINE
  8
0
 10
95.7699
 20
7.51717
 11
95.6073
 21
7.39906
  0
LINE
  8
0
 10
95.6073
 20
7.39906
 11
95.4312
 21
7.30228
  0
LINE
  8
0
 10
95.4312
 20
7.30228
 11
95.2444
 21
7.2283
  0
LINE
  8
0
 10
95.2444
 20
7.2283
 11
95.0498
 21
7.17833
  0
LINE
  8
0
 10
95.0498
 20
7.17833
 11
94.8505
 21
7.15315
  0
LINE
  8
0
 10
94.8505
 20
7.15315
 11
94.6495
 21
7.15315
  0
ENDSEC
  0
SECTION
  2
OBJECTS
  0
DICTIONARY
  0
ENDSEC
  0
EOF
