  0
SECTION
  2
BLOCKS
  0
ENDSEC
  0
SECTION
  2
ENTITIES
  0
LINE
  8
0
 10
121.5
 20
80
 11
-121.5
 21
80
  0
LINE
  8
0
 10
-121.5
 20
80
 11
-121.5
 21
0
  0
LINE
  8
0
 10
-121.5
 20
0
 11
121.5
 21
0
  0
LINE
  8
0
 10
121.5
 20
0
 11
121.5
 21
80
  0
LINE
  8
0
 10
-114.1
 20
70.4032
 11
-114.3
 21
70.4283
  0
LINE
  8
0
 10
-114.3
 20
70.4283
 11
-114.494
 21
70.4783
  0
LINE
  8
0
 10
-114.494
 20
70.4783
 11
-114.681
 21
70.5523
  0
LINE
  8
0
 10
-114.681
 20
70.5523
 11
-114.857
 21
70.6491
  0
LINE
  8
0
 10
-114.857
 20
70.6491
 11
-115.02
 21
70.7672
  0
LINE
  8
0
 10
-115.02
 20
70.7672
 11
-115.166
 21
70.9047
  0
LINE
  8
0
 10
-115.166
 20
70.9047
 11
-115.294
 21
71.0595
  0
LINE
  8
0
 10
-115.294
 20
71.0595
 11
-115.402
 21
71.2292
  0
LINE
  8
0
 10
-115.402
 20
71.2292
 11
-115.488
 21
71.411
  0
LINE
  8
0
 10
-115.488
 20
71.411
 11
-115.55
 21
71.6021
  0
LINE
  8
0
 10
-115.55
 20
71.6021
 11
-115.587
 21
71.7995
  0
LINE
  8
0
 10
-115.587
 20
71.7995
 11
-115.6
 21
72
  0
LINE
  8
0
 10
-115.6
 20
72
 11
-115.587
 21
72.2005
  0
LINE
  8
0
 10
-115.587
 20
72.2005
 11
-115.55
 21
72.3979
  0
LINE
  8
0
 10
-115.55
 20
72.3979
 11
-115.488
 21
72.589
  0
LINE
  8
0
 10
-115.488
 20
72.589
 11
-115.402
 21
72.7708
  0
LINE
  8
0
 10
-115.402
 20
72.7708
 11
-115.294
 21
72.9404
  0
LINE
  8
0
 10
-115.294
 20
72.9404
 11
-115.166
 21
73.0953
  0
LINE
  8
0
 10
-115.166
 20
73.0953
 11
-115.02
 21
73.2328
  0
LINE
  8
0
 10
-115.02
 20
73.2328
 11
-114.857
 21
73.3509
  0
LINE
  8
0
 10
-114.857
 20
73.3509
 11
-114.681
 21
73.4477
  0
LINE
  8
0
 10
-114.681
 20
73.4477
 11
-114.494
 21
73.5217
  0
LINE
  8
0
 10
-114.494
 20
73.5217
 11
-114.3
 21
73.5717
  0
LINE
  8
0
 10
-114.3
 20
73.5717
 11
-114.1
 21
73.5968
  0
LINE
  8
0
 10
-114.1
 20
73.5968
 11
-113.9
 21
73.5968
  0
LINE
  8
0
 10
-113.9
 20
73.5968
 11
-113.7
 21
73.5717
  0
LINE
  8
0
 10
-113.7
 20
73.5717
 11
-113.506
 21
73.5217
  0
LINE
  8
0
 10
-113.506
 20
73.5217
 11
-113.319
 21
73.4477
  0
LINE
  8
0
 10
-113.319
 20
73.4477
 11
-113.143
 21
73.3509
  0
LINE
  8
0
 10
-113.143
 20
73.3509
 11
-112.98
 21
73.2328
  0
LINE
  8
0
 10
-112.98
 20
73.2328
 11
-112.834
 21
73.0953
  0
LINE
  8
0
 10
-112.834
 20
73.0953
 11
-112.706
 21
72.9404
  0
LINE
  8
0
 10
-112.706
 20
72.9404
 11
-112.598
 21
72.7708
  0
LINE
  8
0
 10
-112.598
 20
72.7708
 11
-112.512
 21
72.589
  0
LINE
  8
0
 10
-112.512
 20
72.589
 11
-112.45
 21
72.3979
  0
LINE
  8
0
 10
-112.45
 20
72.3979
 11
-112.413
 21
72.2005
  0
LINE
  8
0
 10
-112.413
 20
72.2005
 11
-112.4
 21
72
  0
LINE
  8
0
 10
-112.4
 20
72
 11
-112.413
 21
71.7995
  0
LINE
  8
0
 10
-112.413
 20
71.7995
 11
-112.45
 21
71.6021
  0
LINE
  8
0
 10
-112.45
 20
71.6021
 11
-112.512
 21
71.411
  0
LINE
  8
0
 10
-112.512
 20
71.411
 11
-112.598
 21
71.2292
  0
LINE
  8
0
 10
-112.598
 20
71.2292
 11
-112.706
 21
71.0595
  0
LINE
  8
0
 10
-112.706
 20
71.0595
 11
-112.834
 21
70.9047
  0
LINE
  8
0
 10
-112.834
 20
70.9047
 11
-112.98
 21
70.7672
  0
LINE
  8
0
 10
-112.98
 20
70.7672
 11
-113.143
 21
70.6491
  0
LINE
  8
0
 10
-113.143
 20
70.6491
 11
-113.319
 21
70.5523
  0
LINE
  8
0
 10
-113.319
 20
70.5523
 11
-113.506
 21
70.4783
  0
LINE
  8
0
 10
-113.506
 20
70.4783
 11
-113.7
 21
70.4283
  0
LINE
  8
0
 10
-113.7
 20
70.4283
 11
-113.9
 21
70.4032
  0
LINE
  8
0
 10
-113.9
 20
70.4032
 11
-114.1
 21
70.4032
  0
LINE
  8
0
 10
113.9
 20
70.4032
 11
113.7
 21
70.4283
  0
LINE
  8
0
 10
113.7
 20
70.4283
 11
113.506
 21
70.4783
  0
LINE
  8
0
 10
113.506
 20
70.4783
 11
113.319
 21
70.5523
  0
LINE
  8
0
 10
113.319
 20
70.5523
 11
113.143
 21
70.6491
  0
LINE
  8
0
 10
113.143
 20
70.6491
 11
112.98
 21
70.7672
  0
LINE
  8
0
 10
112.98
 20
70.7672
 11
112.834
 21
70.9047
  0
LINE
  8
0
 10
112.834
 20
70.9047
 11
112.706
 21
71.0595
  0
LINE
  8
0
 10
112.706
 20
71.0595
 11
112.598
 21
71.2292
  0
LINE
  8
0
 10
112.598
 20
71.2292
 11
112.512
 21
71.411
  0
LINE
  8
0
 10
112.512
 20
71.411
 11
112.45
 21
71.6021
  0
LINE
  8
0
 10
112.45
 20
71.6021
 11
112.413
 21
71.7995
  0
LINE
  8
0
 10
112.413
 20
71.7995
 11
112.4
 21
72
  0
LINE
  8
0
 10
112.4
 20
72
 11
112.413
 21
72.2005
  0
LINE
  8
0
 10
112.413
 20
72.2005
 11
112.45
 21
72.3979
  0
LINE
  8
0
 10
112.45
 20
72.3979
 11
112.512
 21
72.589
  0
LINE
  8
0
 10
112.512
 20
72.589
 11
112.598
 21
72.7708
  0
LINE
  8
0
 10
112.598
 20
72.7708
 11
112.706
 21
72.9404
  0
LINE
  8
0
 10
112.706
 20
72.9404
 11
112.834
 21
73.0953
  0
LINE
  8
0
 10
112.834
 20
73.0953
 11
112.98
 21
73.2328
  0
LINE
  8
0
 10
112.98
 20
73.2328
 11
113.143
 21
73.3509
  0
LINE
  8
0
 10
113.143
 20
73.3509
 11
113.319
 21
73.4477
  0
LINE
  8
0
 10
113.319
 20
73.4477
 11
113.506
 21
73.5217
  0
LINE
  8
0
 10
113.506
 20
73.5217
 11
113.7
 21
73.5717
  0
LINE
  8
0
 10
113.7
 20
73.5717
 11
113.9
 21
73.5968
  0
LINE
  8
0
 10
113.9
 20
73.5968
 11
114.1
 21
73.5968
  0
LINE
  8
0
 10
114.1
 20
73.5968
 11
114.3
 21
73.5717
  0
LINE
  8
0
 10
114.3
 20
73.5717
 11
114.494
 21
73.5217
  0
LINE
  8
0
 10
114.494
 20
73.5217
 11
114.681
 21
73.4477
  0
LINE
  8
0
 10
114.681
 20
73.4477
 11
114.857
 21
73.3509
  0
LINE
  8
0
 10
114.857
 20
73.3509
 11
115.02
 21
73.2328
  0
LINE
  8
0
 10
115.02
 20
73.2328
 11
115.166
 21
73.0953
  0
LINE
  8
0
 10
115.166
 20
73.0953
 11
115.294
 21
72.9404
  0
LINE
  8
0
 10
115.294
 20
72.9404
 11
115.402
 21
72.7708
  0
LINE
  8
0
 10
115.402
 20
72.7708
 11
115.488
 21
72.589
  0
LINE
  8
0
 10
115.488
 20
72.589
 11
115.55
 21
72.3979
  0
LINE
  8
0
 10
115.55
 20
72.3979
 11
115.587
 21
72.2005
  0
LINE
  8
0
 10
115.587
 20
72.2005
 11
115.6
 21
72
  0
LINE
  8
0
 10
115.6
 20
72
 11
115.587
 21
71.7995
  0
LINE
  8
0
 10
115.587
 20
71.7995
 11
115.55
 21
71.6021
  0
LINE
  8
0
 10
115.55
 20
71.6021
 11
115.488
 21
71.411
  0
LINE
  8
0
 10
115.488
 20
71.411
 11
115.402
 21
71.2292
  0
LINE
  8
0
 10
115.402
 20
71.2292
 11
115.294
 21
71.0595
  0
LINE
  8
0
 10
115.294
 20
71.0595
 11
115.166
 21
70.9047
  0
LINE
  8
0
 10
115.166
 20
70.9047
 11
115.02
 21
70.7672
  0
LINE
  8
0
 10
115.02
 20
70.7672
 11
114.857
 21
70.6491
  0
LINE
  8
0
 10
114.857
 20
70.6491
 11
114.681
 21
70.5523
  0
LINE
  8
0
 10
114.681
 20
70.5523
 11
114.494
 21
70.4783
  0
LINE
  8
0
 10
114.494
 20
70.4783
 11
114.3
 21
70.4283
  0
LINE
  8
0
 10
114.3
 20
70.4283
 11
114.1
 21
70.4032
  0
LINE
  8
0
 10
114.1
 20
70.4032
 11
113.9
 21
70.4032
  0
LINE
  8
0
 10
-114.1
 20
4.40315
 11
-114.3
 21
4.42833
  0
LINE
  8
0
 10
-114.3
 20
4.42833
 11
-114.494
 21
4.4783
  0
LINE
  8
0
 10
-114.494
 20
4.4783
 11
-114.681
 21
4.55228
  0
LINE
  8
0
 10
-114.681
 20
4.55228
 11
-114.857
 21
4.64906
  0
LINE
  8
0
 10
-114.857
 20
4.64906
 11
-115.02
 21
4.76717
  0
LINE
  8
0
 10
-115.02
 20
4.76717
 11
-115.166
 21
4.90472
  0
LINE
  8
0
 10
-115.166
 20
4.90472
 11
-115.294
 21
5.05954
  0
LINE
  8
0
 10
-115.294
 20
5.05954
 11
-115.402
 21
5.22919
  0
LINE
  8
0
 10
-115.402
 20
5.22919
 11
-115.488
 21
5.411
  0
LINE
  8
0
 10
-115.488
 20
5.411
 11
-115.55
 21
5.60208
  0
LINE
  8
0
 10
-115.55
 20
5.60208
 11
-115.587
 21
5.79945
  0
LINE
  8
0
 10
-115.587
 20
5.79945
 11
-115.6
 21
6
  0
LINE
  8
0
 10
-115.6
 20
6
 11
-115.587
 21
6.20053
  0
LINE
  8
0
 10
-115.587
 20
6.20053
 11
-115.55
 21
6.3979
  0
LINE
  8
0
 10
-115.55
 20
6.3979
 11
-115.488
 21
6.58899
  0
LINE
  8
0
 10
-115.488
 20
6.58899
 11
-115.402
 21
6.7708
  0
LINE
  8
0
 10
-115.402
 20
6.7708
 11
-115.294
 21
6.94044
  0
LINE
  8
0
 10
-115.294
 20
6.94044
 11
-115.166
 21
7.09526
  0
LINE
  8
0
 10
-115.166
 20
7.09526
 11
-115.02
 21
7.23282
  0
LINE
  8
0
 10
-115.02
 20
7.23282
 11
-114.857
 21
7.35092
  0
LINE
  8
0
 10
-114.857
 20
7.35092
 11
-114.681
 21
7.44771
  0
LINE
  8
0
 10
-114.681
 20
7.44771
 11
-114.494
 21
7.52168
  0
LINE
  8
0
 10
-114.494
 20
7.52168
 11
-114.3
 21
7.57166
  0
LINE
  8
0
 10
-114.3
 20
7.57166
 11
-114.1
 21
7.59683
  0
LINE
  8
0
 10
-114.1
 20
7.59683
 11
-113.9
 21
7.59683
  0
LINE
  8
0
 10
-113.9
 20
7.59683
 11
-113.7
 21
7.57166
  0
LINE
  8
0
 10
-113.7
 20
7.57166
 11
-113.506
 21
7.52168
  0
LINE
  8
0
 10
-113.506
 20
7.52168
 11
-113.319
 21
7.44771
  0
LINE
  8
0
 10
-113.319
 20
7.44771
 11
-113.143
 21
7.35092
  0
LINE
  8
0
 10
-113.143
 20
7.35092
 11
-112.98
 21
7.23282
  0
LINE
  8
0
 10
-112.98
 20
7.23282
 11
-112.834
 21
7.09526
  0
LINE
  8
0
 10
-112.834
 20
7.09526
 11
-112.706
 21
6.94044
  0
LINE
  8
0
 10
-112.706
 20
6.94044
 11
-112.598
 21
6.7708
  0
LINE
  8
0
 10
-112.598
 20
6.7708
 11
-112.512
 21
6.58899
  0
LINE
  8
0
 10
-112.512
 20
6.58899
 11
-112.45
 21
6.3979
  0
LINE
  8
0
 10
-112.45
 20
6.3979
 11
-112.413
 21
6.20053
  0
LINE
  8
0
 10
-112.413
 20
6.20053
 11
-112.4
 21
6
  0
LINE
  8
0
 10
-112.4
 20
6
 11
-112.413
 21
5.79945
  0
LINE
  8
0
 10
-112.413
 20
5.79945
 11
-112.45
 21
5.60208
  0
LINE
  8
0
 10
-112.45
 20
5.60208
 11
-112.512
 21
5.411
  0
LINE
  8
0
 10
-112.512
 20
5.411
 11
-112.598
 21
5.22919
  0
LINE
  8
0
 10
-112.598
 20
5.22919
 11
-112.706
 21
5.05954
  0
LINE
  8
0
 10
-112.706
 20
5.05954
 11
-112.834
 21
4.90472
  0
LINE
  8
0
 10
-112.834
 20
4.90472
 11
-112.98
 21
4.76717
  0
LINE
  8
0
 10
-112.98
 20
4.76717
 11
-113.143
 21
4.64906
  0
LINE
  8
0
 10
-113.143
 20
4.64906
 11
-113.319
 21
4.55228
  0
LINE
  8
0
 10
-113.319
 20
4.55228
 11
-113.506
 21
4.4783
  0
LINE
  8
0
 10
-113.506
 20
4.4783
 11
-113.7
 21
4.42833
  0
LINE
  8
0
 10
-113.7
 20
4.42833
 11
-113.9
 21
4.40315
  0
LINE
  8
0
 10
-113.9
 20
4.40315
 11
-114.1
 21
4.40315
  0
LINE
  8
0
 10
113.9
 20
4.40315
 11
113.7
 21
4.42833
  0
LINE
  8
0
 10
113.7
 20
4.42833
 11
113.506
 21
4.4783
  0
LINE
  8
0
 10
113.506
 20
4.4783
 11
113.319
 21
4.55228
  0
LINE
  8
0
 10
113.319
 20
4.55228
 11
113.143
 21
4.64906
  0
LINE
  8
0
 10
113.143
 20
4.64906
 11
112.98
 21
4.76717
  0
LINE
  8
0
 10
112.98
 20
4.76717
 11
112.834
 21
4.90472
  0
LINE
  8
0
 10
112.834
 20
4.90472
 11
112.706
 21
5.05954
  0
LINE
  8
0
 10
112.706
 20
5.05954
 11
112.598
 21
5.22919
  0
LINE
  8
0
 10
112.598
 20
5.22919
 11
112.512
 21
5.411
  0
LINE
  8
0
 10
112.512
 20
5.411
 11
112.45
 21
5.60208
  0
LINE
  8
0
 10
112.45
 20
5.60208
 11
112.413
 21
5.79945
  0
LINE
  8
0
 10
112.413
 20
5.79945
 11
112.4
 21
6
  0
LINE
  8
0
 10
112.4
 20
6
 11
112.413
 21
6.20053
  0
LINE
  8
0
 10
112.413
 20
6.20053
 11
112.45
 21
6.3979
  0
LINE
  8
0
 10
112.45
 20
6.3979
 11
112.512
 21
6.58899
  0
LINE
  8
0
 10
112.512
 20
6.58899
 11
112.598
 21
6.7708
  0
LINE
  8
0
 10
112.598
 20
6.7708
 11
112.706
 21
6.94044
  0
LINE
  8
0
 10
112.706
 20
6.94044
 11
112.834
 21
7.09526
  0
LINE
  8
0
 10
112.834
 20
7.09526
 11
112.98
 21
7.23282
  0
LINE
  8
0
 10
112.98
 20
7.23282
 11
113.143
 21
7.35092
  0
LINE
  8
0
 10
113.143
 20
7.35092
 11
113.319
 21
7.44771
  0
LINE
  8
0
 10
113.319
 20
7.44771
 11
113.506
 21
7.52168
  0
LINE
  8
0
 10
113.506
 20
7.52168
 11
113.7
 21
7.57166
  0
LINE
  8
0
 10
113.7
 20
7.57166
 11
113.9
 21
7.59683
  0
LINE
  8
0
 10
113.9
 20
7.59683
 11
114.1
 21
7.59683
  0
LINE
  8
0
 10
114.1
 20
7.59683
 11
114.3
 21
7.57166
  0
LINE
  8
0
 10
114.3
 20
7.57166
 11
114.494
 21
7.52168
  0
LINE
  8
0
 10
114.494
 20
7.52168
 11
114.681
 21
7.44771
  0
LINE
  8
0
 10
114.681
 20
7.44771
 11
114.857
 21
7.35092
  0
LINE
  8
0
 10
114.857
 20
7.35092
 11
115.02
 21
7.23282
  0
LINE
  8
0
 10
115.02
 20
7.23282
 11
115.166
 21
7.09526
  0
LINE
  8
0
 10
115.166
 20
7.09526
 11
115.294
 21
6.94044
  0
LINE
  8
0
 10
115.294
 20
6.94044
 11
115.402
 21
6.7708
  0
LINE
  8
0
 10
115.402
 20
6.7708
 11
115.488
 21
6.58899
  0
LINE
  8
0
 10
115.488
 20
6.58899
 11
115.55
 21
6.3979
  0
LINE
  8
0
 10
115.55
 20
6.3979
 11
115.587
 21
6.20053
  0
LINE
  8
0
 10
115.587
 20
6.20053
 11
115.6
 21
6
  0
LINE
  8
0
 10
115.6
 20
6
 11
115.587
 21
5.79945
  0
LINE
  8
0
 10
115.587
 20
5.79945
 11
115.55
 21
5.60208
  0
LINE
  8
0
 10
115.55
 20
5.60208
 11
115.488
 21
5.411
  0
LINE
  8
0
 10
115.488
 20
5.411
 11
115.402
 21
5.22919
  0
LINE
  8
0
 10
115.402
 20
5.22919
 11
115.294
 21
5.05954
  0
LINE
  8
0
 10
115.294
 20
5.05954
 11
115.166
 21
4.90472
  0
LINE
  8
0
 10
115.166
 20
4.90472
 11
115.02
 21
4.76717
  0
LINE
  8
0
 10
115.02
 20
4.76717
 11
114.857
 21
4.64906
  0
LINE
  8
0
 10
114.857
 20
4.64906
 11
114.681
 21
4.55228
  0
LINE
  8
0
 10
114.681
 20
4.55228
 11
114.494
 21
4.4783
  0
LINE
  8
0
 10
114.494
 20
4.4783
 11
114.3
 21
4.42833
  0
LINE
  8
0
 10
114.3
 20
4.42833
 11
114.1
 21
4.40315
  0
LINE
  8
0
 10
114.1
 20
4.40315
 11
113.9
 21
4.40315
  0
ENDSEC
  0
SECTION
  2
OBJECTS
  0
DICTIONARY
  0
ENDSEC
  0
EOF
