  0
SECTION
  2
BLOCKS
  0
ENDSEC
  0
SECTION
  2
ENTITIES
  0
LINE
  8
0
 10
39
 20
37.5
 11
-39
 21
37.5
  0
LINE
  8
0
 10
-39
 20
37.5
 11
-39
 21
-37.5
  0
LINE
  8
0
 10
-39
 20
-37.5
 11
39
 21
-37.5
  0
LINE
  8
0
 10
39
 20
-37.5
 11
39
 21
37.5
  0
LINE
  8
0
 10
32.8995
 20
29.9032
 11
32.7002
 21
29.9283
  0
LINE
  8
0
 10
32.7002
 20
29.9283
 11
32.5056
 21
29.9783
  0
LINE
  8
0
 10
32.5056
 20
29.9783
 11
32.3187
 21
30.0523
  0
LINE
  8
0
 10
32.3187
 20
30.0523
 11
32.1427
 21
30.1491
  0
LINE
  8
0
 10
32.1427
 20
30.1491
 11
31.9801
 21
30.2672
  0
LINE
  8
0
 10
31.9801
 20
30.2672
 11
31.8336
 21
30.4047
  0
LINE
  8
0
 10
31.8336
 20
30.4047
 11
31.7056
 21
30.5595
  0
LINE
  8
0
 10
31.7056
 20
30.5595
 11
31.5979
 21
30.7292
  0
LINE
  8
0
 10
31.5979
 20
30.7292
 11
31.5123
 21
30.911
  0
LINE
  8
0
 10
31.5123
 20
30.911
 11
31.4503
 21
31.1021
  0
LINE
  8
0
 10
31.4503
 20
31.1021
 11
31.4126
 21
31.2995
  0
LINE
  8
0
 10
31.4126
 20
31.2995
 11
31.4
 21
31.5
  0
LINE
  8
0
 10
31.4
 20
31.5
 11
31.4126
 21
31.7005
  0
LINE
  8
0
 10
31.4126
 20
31.7005
 11
31.4503
 21
31.8979
  0
LINE
  8
0
 10
31.4503
 20
31.8979
 11
31.5123
 21
32.089
  0
LINE
  8
0
 10
31.5123
 20
32.089
 11
31.5979
 21
32.2708
  0
LINE
  8
0
 10
31.5979
 20
32.2708
 11
31.7056
 21
32.4404
  0
LINE
  8
0
 10
31.7056
 20
32.4404
 11
31.8336
 21
32.5953
  0
LINE
  8
0
 10
31.8336
 20
32.5953
 11
31.9801
 21
32.7328
  0
LINE
  8
0
 10
31.9801
 20
32.7328
 11
32.1427
 21
32.8509
  0
LINE
  8
0
 10
32.1427
 20
32.8509
 11
32.3187
 21
32.9477
  0
LINE
  8
0
 10
32.3187
 20
32.9477
 11
32.5056
 21
33.0217
  0
LINE
  8
0
 10
32.5056
 20
33.0217
 11
32.7002
 21
33.0717
  0
LINE
  8
0
 10
32.7002
 20
33.0717
 11
32.8995
 21
33.0968
  0
LINE
  8
0
 10
32.8995
 20
33.0968
 11
33.1005
 21
33.0968
  0
LINE
  8
0
 10
33.1005
 20
33.0968
 11
33.2998
 21
33.0717
  0
LINE
  8
0
 10
33.2998
 20
33.0717
 11
33.4944
 21
33.0217
  0
LINE
  8
0
 10
33.4944
 20
33.0217
 11
33.6812
 21
32.9477
  0
LINE
  8
0
 10
33.6812
 20
32.9477
 11
33.8573
 21
32.8509
  0
LINE
  8
0
 10
33.8573
 20
32.8509
 11
34.0199
 21
32.7328
  0
LINE
  8
0
 10
34.0199
 20
32.7328
 11
34.1663
 21
32.5953
  0
LINE
  8
0
 10
34.1663
 20
32.5953
 11
34.2944
 21
32.4404
  0
LINE
  8
0
 10
34.2944
 20
32.4404
 11
34.4021
 21
32.2708
  0
LINE
  8
0
 10
34.4021
 20
32.2708
 11
34.4876
 21
32.089
  0
LINE
  8
0
 10
34.4876
 20
32.089
 11
34.5497
 21
31.8979
  0
LINE
  8
0
 10
34.5497
 20
31.8979
 11
34.5874
 21
31.7005
  0
LINE
  8
0
 10
34.5874
 20
31.7005
 11
34.6
 21
31.5
  0
LINE
  8
0
 10
34.6
 20
31.5
 11
34.5874
 21
31.2995
  0
LINE
  8
0
 10
34.5874
 20
31.2995
 11
34.5497
 21
31.1021
  0
LINE
  8
0
 10
34.5497
 20
31.1021
 11
34.4876
 21
30.911
  0
LINE
  8
0
 10
34.4876
 20
30.911
 11
34.4021
 21
30.7292
  0
LINE
  8
0
 10
34.4021
 20
30.7292
 11
34.2944
 21
30.5595
  0
LINE
  8
0
 10
34.2944
 20
30.5595
 11
34.1663
 21
30.4047
  0
LINE
  8
0
 10
34.1663
 20
30.4047
 11
34.0199
 21
30.2672
  0
LINE
  8
0
 10
34.0199
 20
30.2672
 11
33.8573
 21
30.1491
  0
LINE
  8
0
 10
33.8573
 20
30.1491
 11
33.6812
 21
30.0523
  0
LINE
  8
0
 10
33.6812
 20
30.0523
 11
33.4944
 21
29.9783
  0
LINE
  8
0
 10
33.4944
 20
29.9783
 11
33.2998
 21
29.9283
  0
LINE
  8
0
 10
33.2998
 20
29.9283
 11
33.1005
 21
29.9032
  0
LINE
  8
0
 10
33.1005
 20
29.9032
 11
32.8995
 21
29.9032
  0
LINE
  8
0
 10
-33.1005
 20
29.9032
 11
-33.2998
 21
29.9283
  0
LINE
  8
0
 10
-33.2998
 20
29.9283
 11
-33.4944
 21
29.9783
  0
LINE
  8
0
 10
-33.4944
 20
29.9783
 11
-33.6812
 21
30.0523
  0
LINE
  8
0
 10
-33.6812
 20
30.0523
 11
-33.8573
 21
30.1491
  0
LINE
  8
0
 10
-33.8573
 20
30.1491
 11
-34.0199
 21
30.2672
  0
LINE
  8
0
 10
-34.0199
 20
30.2672
 11
-34.1663
 21
30.4047
  0
LINE
  8
0
 10
-34.1663
 20
30.4047
 11
-34.2944
 21
30.5595
  0
LINE
  8
0
 10
-34.2944
 20
30.5595
 11
-34.4021
 21
30.7292
  0
LINE
  8
0
 10
-34.4021
 20
30.7292
 11
-34.4876
 21
30.911
  0
LINE
  8
0
 10
-34.4876
 20
30.911
 11
-34.5497
 21
31.1021
  0
LINE
  8
0
 10
-34.5497
 20
31.1021
 11
-34.5874
 21
31.2995
  0
LINE
  8
0
 10
-34.5874
 20
31.2995
 11
-34.6
 21
31.5
  0
LINE
  8
0
 10
-34.6
 20
31.5
 11
-34.5874
 21
31.7005
  0
LINE
  8
0
 10
-34.5874
 20
31.7005
 11
-34.5497
 21
31.8979
  0
LINE
  8
0
 10
-34.5497
 20
31.8979
 11
-34.4876
 21
32.089
  0
LINE
  8
0
 10
-34.4876
 20
32.089
 11
-34.4021
 21
32.2708
  0
LINE
  8
0
 10
-34.4021
 20
32.2708
 11
-34.2944
 21
32.4404
  0
LINE
  8
0
 10
-34.2944
 20
32.4404
 11
-34.1663
 21
32.5953
  0
LINE
  8
0
 10
-34.1663
 20
32.5953
 11
-34.0199
 21
32.7328
  0
LINE
  8
0
 10
-34.0199
 20
32.7328
 11
-33.8573
 21
32.8509
  0
LINE
  8
0
 10
-33.8573
 20
32.8509
 11
-33.6812
 21
32.9477
  0
LINE
  8
0
 10
-33.6812
 20
32.9477
 11
-33.4944
 21
33.0217
  0
LINE
  8
0
 10
-33.4944
 20
33.0217
 11
-33.2998
 21
33.0717
  0
LINE
  8
0
 10
-33.2998
 20
33.0717
 11
-33.1005
 21
33.0968
  0
LINE
  8
0
 10
-33.1005
 20
33.0968
 11
-32.8995
 21
33.0968
  0
LINE
  8
0
 10
-32.8995
 20
33.0968
 11
-32.7002
 21
33.0717
  0
LINE
  8
0
 10
-32.7002
 20
33.0717
 11
-32.5056
 21
33.0217
  0
LINE
  8
0
 10
-32.5056
 20
33.0217
 11
-32.3187
 21
32.9477
  0
LINE
  8
0
 10
-32.3187
 20
32.9477
 11
-32.1427
 21
32.8509
  0
LINE
  8
0
 10
-32.1427
 20
32.8509
 11
-31.9801
 21
32.7328
  0
LINE
  8
0
 10
-31.9801
 20
32.7328
 11
-31.8336
 21
32.5953
  0
LINE
  8
0
 10
-31.8336
 20
32.5953
 11
-31.7056
 21
32.4404
  0
LINE
  8
0
 10
-31.7056
 20
32.4404
 11
-31.5979
 21
32.2708
  0
LINE
  8
0
 10
-31.5979
 20
32.2708
 11
-31.5123
 21
32.089
  0
LINE
  8
0
 10
-31.5123
 20
32.089
 11
-31.4503
 21
31.8979
  0
LINE
  8
0
 10
-31.4503
 20
31.8979
 11
-31.4126
 21
31.7005
  0
LINE
  8
0
 10
-31.4126
 20
31.7005
 11
-31.4
 21
31.5
  0
LINE
  8
0
 10
-31.4
 20
31.5
 11
-31.4126
 21
31.2995
  0
LINE
  8
0
 10
-31.4126
 20
31.2995
 11
-31.4503
 21
31.1021
  0
LINE
  8
0
 10
-31.4503
 20
31.1021
 11
-31.5123
 21
30.911
  0
LINE
  8
0
 10
-31.5123
 20
30.911
 11
-31.5979
 21
30.7292
  0
LINE
  8
0
 10
-31.5979
 20
30.7292
 11
-31.7056
 21
30.5595
  0
LINE
  8
0
 10
-31.7056
 20
30.5595
 11
-31.8336
 21
30.4047
  0
LINE
  8
0
 10
-31.8336
 20
30.4047
 11
-31.9801
 21
30.2672
  0
LINE
  8
0
 10
-31.9801
 20
30.2672
 11
-32.1427
 21
30.1491
  0
LINE
  8
0
 10
-32.1427
 20
30.1491
 11
-32.3187
 21
30.0523
  0
LINE
  8
0
 10
-32.3187
 20
30.0523
 11
-32.5056
 21
29.9783
  0
LINE
  8
0
 10
-32.5056
 20
29.9783
 11
-32.7002
 21
29.9283
  0
LINE
  8
0
 10
-32.7002
 20
29.9283
 11
-32.8995
 21
29.9032
  0
LINE
  8
0
 10
-32.8995
 20
29.9032
 11
-33.1005
 21
29.9032
  0
LINE
  8
0
 10
32.8995
 20
-33.0968
 11
32.7002
 21
-33.0717
  0
LINE
  8
0
 10
32.7002
 20
-33.0717
 11
32.5056
 21
-33.0217
  0
LINE
  8
0
 10
32.5056
 20
-33.0217
 11
32.3187
 21
-32.9477
  0
LINE
  8
0
 10
32.3187
 20
-32.9477
 11
32.1427
 21
-32.8509
  0
LINE
  8
0
 10
32.1427
 20
-32.8509
 11
31.9801
 21
-32.7328
  0
LINE
  8
0
 10
31.9801
 20
-32.7328
 11
31.8336
 21
-32.5953
  0
LINE
  8
0
 10
31.8336
 20
-32.5953
 11
31.7056
 21
-32.4404
  0
LINE
  8
0
 10
31.7056
 20
-32.4404
 11
31.5979
 21
-32.2708
  0
LINE
  8
0
 10
31.5979
 20
-32.2708
 11
31.5123
 21
-32.089
  0
LINE
  8
0
 10
31.5123
 20
-32.089
 11
31.4503
 21
-31.8979
  0
LINE
  8
0
 10
31.4503
 20
-31.8979
 11
31.4126
 21
-31.7005
  0
LINE
  8
0
 10
31.4126
 20
-31.7005
 11
31.4
 21
-31.5
  0
LINE
  8
0
 10
31.4
 20
-31.5
 11
31.4126
 21
-31.2995
  0
LINE
  8
0
 10
31.4126
 20
-31.2995
 11
31.4503
 21
-31.1021
  0
LINE
  8
0
 10
31.4503
 20
-31.1021
 11
31.5123
 21
-30.911
  0
LINE
  8
0
 10
31.5123
 20
-30.911
 11
31.5979
 21
-30.7292
  0
LINE
  8
0
 10
31.5979
 20
-30.7292
 11
31.7056
 21
-30.5595
  0
LINE
  8
0
 10
31.7056
 20
-30.5595
 11
31.8336
 21
-30.4047
  0
LINE
  8
0
 10
31.8336
 20
-30.4047
 11
31.9801
 21
-30.2672
  0
LINE
  8
0
 10
31.9801
 20
-30.2672
 11
32.1427
 21
-30.1491
  0
LINE
  8
0
 10
32.1427
 20
-30.1491
 11
32.3187
 21
-30.0523
  0
LINE
  8
0
 10
32.3187
 20
-30.0523
 11
32.5056
 21
-29.9783
  0
LINE
  8
0
 10
32.5056
 20
-29.9783
 11
32.7002
 21
-29.9283
  0
LINE
  8
0
 10
32.7002
 20
-29.9283
 11
32.8995
 21
-29.9032
  0
LINE
  8
0
 10
32.8995
 20
-29.9032
 11
33.1005
 21
-29.9032
  0
LINE
  8
0
 10
33.1005
 20
-29.9032
 11
33.2998
 21
-29.9283
  0
LINE
  8
0
 10
33.2998
 20
-29.9283
 11
33.4944
 21
-29.9783
  0
LINE
  8
0
 10
33.4944
 20
-29.9783
 11
33.6812
 21
-30.0523
  0
LINE
  8
0
 10
33.6812
 20
-30.0523
 11
33.8573
 21
-30.1491
  0
LINE
  8
0
 10
33.8573
 20
-30.1491
 11
34.0199
 21
-30.2672
  0
LINE
  8
0
 10
34.0199
 20
-30.2672
 11
34.1663
 21
-30.4047
  0
LINE
  8
0
 10
34.1663
 20
-30.4047
 11
34.2944
 21
-30.5595
  0
LINE
  8
0
 10
34.2944
 20
-30.5595
 11
34.4021
 21
-30.7292
  0
LINE
  8
0
 10
34.4021
 20
-30.7292
 11
34.4876
 21
-30.911
  0
LINE
  8
0
 10
34.4876
 20
-30.911
 11
34.5497
 21
-31.1021
  0
LINE
  8
0
 10
34.5497
 20
-31.1021
 11
34.5874
 21
-31.2995
  0
LINE
  8
0
 10
34.5874
 20
-31.2995
 11
34.6
 21
-31.5
  0
LINE
  8
0
 10
34.6
 20
-31.5
 11
34.5874
 21
-31.7005
  0
LINE
  8
0
 10
34.5874
 20
-31.7005
 11
34.5497
 21
-31.8979
  0
LINE
  8
0
 10
34.5497
 20
-31.8979
 11
34.4876
 21
-32.089
  0
LINE
  8
0
 10
34.4876
 20
-32.089
 11
34.4021
 21
-32.2708
  0
LINE
  8
0
 10
34.4021
 20
-32.2708
 11
34.2944
 21
-32.4404
  0
LINE
  8
0
 10
34.2944
 20
-32.4404
 11
34.1663
 21
-32.5953
  0
LINE
  8
0
 10
34.1663
 20
-32.5953
 11
34.0199
 21
-32.7328
  0
LINE
  8
0
 10
34.0199
 20
-32.7328
 11
33.8573
 21
-32.8509
  0
LINE
  8
0
 10
33.8573
 20
-32.8509
 11
33.6812
 21
-32.9477
  0
LINE
  8
0
 10
33.6812
 20
-32.9477
 11
33.4944
 21
-33.0217
  0
LINE
  8
0
 10
33.4944
 20
-33.0217
 11
33.2998
 21
-33.0717
  0
LINE
  8
0
 10
33.2998
 20
-33.0717
 11
33.1005
 21
-33.0968
  0
LINE
  8
0
 10
33.1005
 20
-33.0968
 11
32.8995
 21
-33.0968
  0
LINE
  8
0
 10
-33.1005
 20
-33.0968
 11
-33.2998
 21
-33.0717
  0
LINE
  8
0
 10
-33.2998
 20
-33.0717
 11
-33.4944
 21
-33.0217
  0
LINE
  8
0
 10
-33.4944
 20
-33.0217
 11
-33.6812
 21
-32.9477
  0
LINE
  8
0
 10
-33.6812
 20
-32.9477
 11
-33.8573
 21
-32.8509
  0
LINE
  8
0
 10
-33.8573
 20
-32.8509
 11
-34.0199
 21
-32.7328
  0
LINE
  8
0
 10
-34.0199
 20
-32.7328
 11
-34.1663
 21
-32.5953
  0
LINE
  8
0
 10
-34.1663
 20
-32.5953
 11
-34.2944
 21
-32.4404
  0
LINE
  8
0
 10
-34.2944
 20
-32.4404
 11
-34.4021
 21
-32.2708
  0
LINE
  8
0
 10
-34.4021
 20
-32.2708
 11
-34.4876
 21
-32.089
  0
LINE
  8
0
 10
-34.4876
 20
-32.089
 11
-34.5497
 21
-31.8979
  0
LINE
  8
0
 10
-34.5497
 20
-31.8979
 11
-34.5874
 21
-31.7005
  0
LINE
  8
0
 10
-34.5874
 20
-31.7005
 11
-34.6
 21
-31.5
  0
LINE
  8
0
 10
-34.6
 20
-31.5
 11
-34.5874
 21
-31.2995
  0
LINE
  8
0
 10
-34.5874
 20
-31.2995
 11
-34.5497
 21
-31.1021
  0
LINE
  8
0
 10
-34.5497
 20
-31.1021
 11
-34.4876
 21
-30.911
  0
LINE
  8
0
 10
-34.4876
 20
-30.911
 11
-34.4021
 21
-30.7292
  0
LINE
  8
0
 10
-34.4021
 20
-30.7292
 11
-34.2944
 21
-30.5595
  0
LINE
  8
0
 10
-34.2944
 20
-30.5595
 11
-34.1663
 21
-30.4047
  0
LINE
  8
0
 10
-34.1663
 20
-30.4047
 11
-34.0199
 21
-30.2672
  0
LINE
  8
0
 10
-34.0199
 20
-30.2672
 11
-33.8573
 21
-30.1491
  0
LINE
  8
0
 10
-33.8573
 20
-30.1491
 11
-33.6812
 21
-30.0523
  0
LINE
  8
0
 10
-33.6812
 20
-30.0523
 11
-33.4944
 21
-29.9783
  0
LINE
  8
0
 10
-33.4944
 20
-29.9783
 11
-33.2998
 21
-29.9283
  0
LINE
  8
0
 10
-33.2998
 20
-29.9283
 11
-33.1005
 21
-29.9032
  0
LINE
  8
0
 10
-33.1005
 20
-29.9032
 11
-32.8995
 21
-29.9032
  0
LINE
  8
0
 10
-32.8995
 20
-29.9032
 11
-32.7002
 21
-29.9283
  0
LINE
  8
0
 10
-32.7002
 20
-29.9283
 11
-32.5056
 21
-29.9783
  0
LINE
  8
0
 10
-32.5056
 20
-29.9783
 11
-32.3187
 21
-30.0523
  0
LINE
  8
0
 10
-32.3187
 20
-30.0523
 11
-32.1427
 21
-30.1491
  0
LINE
  8
0
 10
-32.1427
 20
-30.1491
 11
-31.9801
 21
-30.2672
  0
LINE
  8
0
 10
-31.9801
 20
-30.2672
 11
-31.8336
 21
-30.4047
  0
LINE
  8
0
 10
-31.8336
 20
-30.4047
 11
-31.7056
 21
-30.5595
  0
LINE
  8
0
 10
-31.7056
 20
-30.5595
 11
-31.5979
 21
-30.7292
  0
LINE
  8
0
 10
-31.5979
 20
-30.7292
 11
-31.5123
 21
-30.911
  0
LINE
  8
0
 10
-31.5123
 20
-30.911
 11
-31.4503
 21
-31.1021
  0
LINE
  8
0
 10
-31.4503
 20
-31.1021
 11
-31.4126
 21
-31.2995
  0
LINE
  8
0
 10
-31.4126
 20
-31.2995
 11
-31.4
 21
-31.5
  0
LINE
  8
0
 10
-31.4
 20
-31.5
 11
-31.4126
 21
-31.7005
  0
LINE
  8
0
 10
-31.4126
 20
-31.7005
 11
-31.4503
 21
-31.8979
  0
LINE
  8
0
 10
-31.4503
 20
-31.8979
 11
-31.5123
 21
-32.089
  0
LINE
  8
0
 10
-31.5123
 20
-32.089
 11
-31.5979
 21
-32.2708
  0
LINE
  8
0
 10
-31.5979
 20
-32.2708
 11
-31.7056
 21
-32.4404
  0
LINE
  8
0
 10
-31.7056
 20
-32.4404
 11
-31.8336
 21
-32.5953
  0
LINE
  8
0
 10
-31.8336
 20
-32.5953
 11
-31.9801
 21
-32.7328
  0
LINE
  8
0
 10
-31.9801
 20
-32.7328
 11
-32.1427
 21
-32.8509
  0
LINE
  8
0
 10
-32.1427
 20
-32.8509
 11
-32.3187
 21
-32.9477
  0
LINE
  8
0
 10
-32.3187
 20
-32.9477
 11
-32.5056
 21
-33.0217
  0
LINE
  8
0
 10
-32.5056
 20
-33.0217
 11
-32.7002
 21
-33.0717
  0
LINE
  8
0
 10
-32.7002
 20
-33.0717
 11
-32.8995
 21
-33.0968
  0
LINE
  8
0
 10
-32.8995
 20
-33.0968
 11
-33.1005
 21
-33.0968
  0
ENDSEC
  0
SECTION
  2
OBJECTS
  0
DICTIONARY
  0
ENDSEC
  0
EOF
